Oops, an error
Loading. Please wait.

Hot Dog bass

version 2
version 2

Whole song

64 views 3 this week
no commentswrite comment
1 2 3 4 5
3 more votes to show rating
add to favorites
×
Save as Personal and add changes to this tab that will be seen only by you. Learn more ›
×
You can save this tab as Personal to edit and correct it or add notes. All changes will be seen only by you. Learn more »
launch autoscroll
font size
0
reset
guitar tuner
edit
Autoscroll
slow
fast
+/-
esc
set tempo
stop
[Intro] (from 0:00 to 0:33) *bass comes in at 0:15

G|----------------------------------|   
D|----------------------------------|    
A|----------------------------------| x4  
E|----------------------------------|     
C#|--0/12-0--0-0-1--0/12-0-0-0------|   


[Verse 1] (from 0:34 to 1:02) 

G|----------------------------------|---------------------------|
D|----------------------------------|---------------------------|
A|----------------------------------|---------------------------| x3
E|----------5------2--------------7-|------5-----2-------7------|
C#|---0-------------------3---------|-0-------------------------|


[Interlude 1]  (from 1:03 to 1:11) 

G|-----------------------------------------| 
D|--------------------------------4--------|   
A|--------------------------4h5h6----------| x4  
E|-----------------------------------------|
C#|---0--0--0-0-0-0--0--0------------------| (These open notes kind of have a triplet feel when you play them)


[Back to verse 1] (from 1:12 to 1:30) 

G|----------------------------------|---------------------------|
D|----------------------------------|---------------------------|
A|----------------------------------|---------------------------| x2
E|----------5------2------------7---|------5-----2-------7------|
C#|---0-------------------3---------|-0-------------------------|


[Chorus 1] (from 1:31 to 1:49) 

G|----------------------------------|   
D|----------------------------------|     
A|----------------------------------| x4  
E|----------------------------------|     
C#|--0/12-0--0-0-1---0/12-0-0-0-----|   


[Verse 2] (from 1:50 to 2:08)

G|----------------------------------|---------------------------|
D|----------------------------------|---------------------------|
A|----------------------------------|---------------------------| x2
E|----------5------2------------7---|------5-----2-------7------|
C#|---0-------------------3---------|-0-------------------------|


[Interlude 2] (from 2:09 to 2:18) 

G|-----------------------------------------| 
D|--------------------------------4--------|   
A|--------------------------4h5h6----------| x4
E|-----------------------------------------|
C#|---0--0--0-0-0-0--0--0------------------|


[Chorus 2] (from 2:19 to 2:37) 

G|----------------------------------|   
D|----------------------------------|     
A|----------------------------------| x4
E|----------------------------------|     
C#|--0/12-0--0-0-1---0/12-0-0-0-----|


[Bridge] (from 2:38 to 3:04)  

G|------------------------------------------|-----------------------------------------|
D|------------------------------------------|-----------------------------------------|
A|------------------------------------------|-----------------------------------------| x3
E|------------------------------------------|-----------------------------------------|
C#|---0-0----0-0----0-0----0-0----6-0-0-6-6-|--0-0----0-0----0-0----0-0---6-0-0-6-6---|           


[Breakdown] (from 3:05 to 3:23) 

G|----------------------------------------------|
D|----------------------------------------------|  x4
A|----------------------------------------------|  
E|--------9b------9b-----9b---------------------|  (Play these "9" notes with a slight downward bend
C#|---0-0----0-0-----0-0----0-0-0---6-0-0-6-6---|  on each note.)


[Outro] (from 3:27 to 3:50) 

G|------------------------------------|   
D|------------------------------------|    
A|------------------------------------|  x3    
E|------------------------------------|     
C#|-0---0-0/12-0--0-0-1---0/12-0-0-0--| (Slapping here is optional. Slap just the first four open notes   
    S   S S                               and play the rest of the notes in the outro normally.) 


 
 (At 3:43 I like to play this note to try and imitate the sound of the guitar as Wes Borland plays an open 
 note with tremolo and lets the tremolo bar go slack to end the song. It's basically a fill and is 
 completely optional.)

G|-----------| 
D|-----------|
A|-----------| x1
E|-----------|
C#|---12\0---|



************************************
| h   Hammer-on
| b   Bend
| /   Slide up
| \   Slide down
| S   Slap


************************************

            
            
Suggest correction
Creating personal tab
Creating personal tab
You can edit any tab online and save it as your Personal.

You can edit, replace or remove any tab part or add personal notes – all changes will be seen only by you.

Personal tabs can be accessed anytime from any device, even offline.
Learn more »
Give kudos to tab author, rate the tab!
1 2 3 4 5
comments
print report bad tab
guest
You may want to rate the tab now too:
select rating
Wanna post a correction for this tab? Suggest correction