Oops, an error
Loading. Please wait.

Jump Around bass

version 1
version 1

Whole song

Interactive

2,250 views 3 this week
1 commentread comment
1 2 3 4 5
1 last vote to show rating
add to favorites
×
Save as Personal and add changes to this tab that will be seen only by you. Learn more ›
×
You can save this tab as Personal to edit and correct it or add notes. All changes will be seen only by you. Learn more »
launch autoscroll
font size
0
reset
guitar tuner
edit
Autoscroll
slow
fast
+/-
esc
set tempo
stop
Limp bizkt - Jump around

5 string version - im not too sure about the tuning but just 
Experiment a little.

 " how many of you people remeber the house of pain?......"
 G||---------------------------------||
 D||---------------------------------||
 A||---------------------------------||
 E||-----12--------------------------||
 B||----------7-7----10---11---12----|| Repeat X?


 "jump,jump,jump,jump"
 
 G||---------------------------------||
 D||---------------------------------||
 A||---------------------------------||
 E||---------------------------------||
 B||--0-0-0-0-0-0-0-0-0-0-0-0-0-0-0--|| 

 Repeat 

 G||---------------------------------||
 D||---------------------------------||
 A||---------------------------------||
 E||-----12--------------------------||
 B||----------7-7----10---11---12----|| Repeat X?

 Back to chorus
 
 G||---------------------------------||
 D||---------------------------------||
 A||---------------------------------||
 E||---------------------------------||
 B||--0-0-0-0-0-0-0-0-0-0-0-0-0-0-0--||

Ive watched the family values video and this is how i see him play it
hope you like it

Any queries,comments or corrections 

E-mail :- Horney145@hotmail.com thanks

            
            
Suggest correction
Creating personal tab
Creating personal tab
You can edit any tab online and save it as your Personal.

You can edit, replace or remove any tab part or add personal notes – all changes will be seen only by you.

Personal tabs can be accessed anytime from any device, even offline.
Learn more »
Give kudos to tab author, rate the tab!
1 2 3 4 5
comments
print report bad tab
1 comment total.
0 reply
horney145 10 Nov 14, 2002 07:00 PM

Limp bizkt - Jump around

5 string version - im not too sure about the tuning but just
Experiment a little.

" how many of you people remeber the house of pain?......"
G||----------------------------------||
D||----------------------------------||
A||----------------------------------||
E||-----12*--------------------------||
B||----------7-7----10---11---12----|| Repeat X?


"jump,jump,jump,jump"

G||---------------------------------||
D||---------------------------------||
A||---------------------------------||
E||---------------------------------||
B||--0-0-0-0-0-0-0-0-0-0-0-0-0-0-0--||

Repeat

G||----------------------------------||
D||----------------------------------||
A||----------------------------------||
E||-----12*--------------------------||
B||----------7-7----10---11---12----|| Repeat X?

Back to chorus

G||---------------------------------||
D||---------------------------------||
A||---------------------------------||
E||---------------------------------||
B||--0-0-0-0-0-0-0-0-0-0-0-0-0-0-0--||

Ive watched the family values video and this is how i see him play it
hope you like it

Any queries,comments or corrections

E-mail :- Horney145@hotmail.com thanks




UG channels: guitar tabs ? bass tabs ? lessons ? news ? UG reviews ? UG column ? top 100 viewed tabs ? top 100 rated tabs ? UG forums
about UG: advertise on UG ? about UG ? disclaimer ? privacy policy ? contact info ? comments?

All text materials represented on the site are for personal s

guest
Wanna post a correction for this tab? Suggest correction