Oops, an error
Loading. Please wait.
We have an official Livin It Up tab made by UG professional guitarists. Check out the tab »
×

Livin It Up bass

version 2
version 2

Whole song

  • This song is probably best played on a 5-string ba... Show more

Interactive

361 views 6 this week
no commentswrite comment
1 2 3 4 5
3 more votes to show rating
add to favorites
×
Save as Personal and add changes to this tab that will be seen only by you. Learn more ›
×
You can save this tab as Personal to edit and correct it or add notes. All changes will be seen only by you. Learn more »
launch autoscroll
font size
0
reset
guitar tuner
edit
Autoscroll
slow
fast
+/-
esc
set tempo
stop
About this tab version
This song is probably best played on a 5-string bass. I'm not sure if you can play it on a 4-string bass. For this song tune the low B string up 1 step to C#. Every other string is in standard tuning. From the live footage I've seen -- namely the Rock Im Park 2001 show -- this tab sounds pretty accurate. Was this info helpful? Yes No
[Verse 1 and 2] 
*repeat throughout each verse in this song                                                               
G|--------------------------|
D|-----------------16-------|
A|----------12--------14p12-|
E|----11--------------------|
C#|-------------------------|

[Chorus 1 and 2] 
(NOTE: for the 2h3p2 part of the chorus, you can just slide instead
from the 2nd fret to the 3rd fret and slide back to the 2nd fret.)
G|--------------|------------|-------------------------|
D|--------------|------------|-------------------------|  
A|--------------|------------|-------------------------|  x4  
E|--------------|------------|-------------------------|   
C#|--2-2--0-2-0-|-2-2--0-2-0-|-2-2--0-2-0--2-2-2h3p2-0-|

[Bridge 1]
(from 2:33 to 2:52) 
G|----------------------------------------------------|
D|----------------------------------------------------|
A|----------------------------------------------------| x4
E|----------9-9-9-9-9-9-9-9-9-9-9-9-------------------|
C#|--2-2-2--------------------------7-777-5-55-55-0-2-|


[Bridge 2]
(from 2:53 to 3:22)
G|--------------|   
D|--------------|   *repeat 
A|--------------|    for duration of 
E|--------------|    bridge 2
C#|---0-h2-2-2--|

[Bridge 3]
(from 3:23 to 3:39)     
G|--------------------|
D|--------------------| *play for
A|--------------------|  duration of
E|--------------------|  Bridge 3
C#|---2-2-2----0-2-2--|


G|--------------|
D|--------------| *final notes of
A|--------------|  Bridge 3
E|--------------|
C#|--0-2--------|

[Back to bridge 1] 
(from 3:42 to 4:01) 
G|----------------------------------------------------|
D|----------------------------------------------------|
A|----------------------------------------------------| x4
E|----------9-9-9-9-9-9-9-9-9-9-9-9-------------------|
C#|--2-2-2--------------------------7-777-5-55-55-0-2-|

[End chorus]  
(from 4:02 to 4:22)
G|--------------|------------|---------------------------|
D|--------------|------------|---------------------------|  
A|--------------|------------|---------------------------| x4
E|--------------|------------|---------------------------|    
C#|--2-2--0-2-0-|-2-2--0-2-0-|-2-2--0-2-0--2-2-2h3p2-0---|


[Final note of song]
(at 4:23)
G|----------|
D|----------|
A|----------|
E|----------|
C#|---2-----|
 
************************************

| b  Bend
| p  Pull-off
| h  Hammer-on
| /  Slide up
 

************************************

            
            
Suggest correction
Creating personal tab
Creating personal tab
You can edit any tab online and save it as your Personal.

You can edit, replace or remove any tab part or add personal notes – all changes will be seen only by you.

Personal tabs can be accessed anytime from any device, even offline.
Learn more »
Give kudos to tab author, rate the tab!
1 2 3 4 5
comments
print report bad tab
guest
You may want to rate the tab now too:
select rating
Wanna post a correction for this tab? Suggest correction