Oops, an error
Loading. Please wait.

Mission Impossible 2 Tab

version 3
version 3

Whole song

4,494 views 1 this week
1 commentread comment
1 2 3 4 5
please rate
add to favorites
launch autoscroll
font size
0
reset
how to read this tab
guitar tuner
Tab Pro tools
  • play this tab
  • loop segment
  • change instrument
  • show fretboard
  • metronome
×
Best way to learn
"Mission Impossible 2"
Autoscroll
slow
fast
+/-
esc
set tempo
stop
Contributor
Tabbed by: UncreativeMike

This is my first tab, please leave some feedback and let me know what you think. Thanks!



The progression is:

Part 1  x8
Part 2  x2
Part 1  x2
Part 2  x2
Part 3  x6
Part 4  x2
Part 1  x2
Part 2  x4
Part 3  x6
Part 4  x2
Part 5  x2
Pause for bass and drum, slowly fade in Part 1 piece by piece (hard to tab)
Part 4  x2
Part 6  x2
Part 2  fading until done

Part 1

e|---------------------------------------------------------------------------------------|
B|---------------------------------------------------------------------------------------| 
G|-------------------4--6p4--------------------------------------------------------------|   
D|-----6--6--6--6--6---------6--6--6--6--6-----------------------------------------------|       
A|-----------------------------------------4--5------------------------------------------|
E|---------------------------------------------------------------------------------------|

Part 2

e|-----14--11----------14--11----------14--11----------14--11----------------------------|
B|-------------11--------------10--------------9---------------12-12-12-12-11-11-11------|
G|---------------------------------------------------------------------------------------|
D|---------------------------------------------------------------------------------------|
A|---------------------------------------------------------------------------------------|
E|---------------------------------------------------------------------------------------|

Part 3

e|---------------------------------------------------------------------------------------|
B|---------------------------------------------------------------------------------------|
G|--7/8--7/8--7/8--7/8--11--13--------7/8--7/8--7/8--7/8--6--7---------------------------|
D|--7/8--7/8--7/8--7/8--11--13--------7/8--7/8--7/8--7/8--6--7---------------------------|
A|--5/6--5/6--5/6--5/6---9---11-------5/6--5/6--5/6--5/6--4--5---------------------------|
E|---------------------------------------------------------------------------------------|

Part 4

e|---------------------------------------------------------------------------|
B|---------------------------------------------------------------------------|
G|--x-8--x-8--x-8--x-8--11--13--------x-8--x-8--x-8--x-8--6--7---------------|
D|--x-8--x-8--x-8--x-8--11--13--------x-8--x-8--x-8--x-8--6--7---------------|
A|--x-6--x-6--x-6--x-6---9--11--------x-6--x-6--x-6--x-6--4--5---------------|
E|---------------------------------------------------------------------------|

Part 5

e|-----------------------------------------------|
B|-----------------------------------------------|
G|--8--8--11--13--------8--8--6--7---------------|
D|--8--8--11--13--------8--8--6--7---------------|
A|--6--6---9--11--------6--6--4--5---------------|
E|-----------------------------------------------|

Part 6

e|---------------------------------------------------------------------------------------|
B|---------------------------------------------------------------------------------------|
G|--x-8--x-8--7/8--7/8--11--13--------x-8--x-8--7/8--7/8--6--7---------------------------|
D|--x-8--x-8--7/8--7/8--11--13--------x-8--x-8--7/8--7/8--6--7---------------------------|
A|--x-6--x-6--5/6--5/6---9--11--------x-6--x-6--5/6--5/6--4--5---------------------------|
E|---------------------------------------------------------------------------------------|

| /  slide up
| p  pull-off
===============================================================================
comments
We did not receive enough feedback on this tab! Please rate:
print report bad tab
1 2 3 4 5
1 comment total.
0 reply
oxocubeingravy wrote on July 8 2006, 11:17 am

Sort of has the right idea, but is totally wrong. lol. check out the "take a look around" by limp bikit tab for the correct way to play it.

I want to post or [tab]
guest
You may want to rate the tab now too:
select rating
Please do not post tabs as comments. Select "correction" instead!