Oops, an error
Loading. Please wait.

My Genaration Bass Tab

version 1
version 1

Whole song

Interactive

1,663 views 3 this week
no commentswrite comment
1 2 3 4 5
please rate
add to favorites
launch autoscroll
font size
0
reset
guitar tuner
Autoscroll
slow
fast
+/-
esc
set tempo
stop
Help us to improve Ultimate-Guitar.com Take our survey!
×
Song:My Generation
Artist:Limp Bizkit
Album:Chocolate Starfish And The Hot Dog Flavored Water
 Tuning: Low To High C# F# B E

Sam Rivers Uses A 5-String Bass, During This Song He Does Not Use The Added 5th, So I 
Tab This As A 4-String Tab.

Intro: Bass Comes In With Guitar At 0:20 This Is Also The Chorus Riff.
E |-------------------------------------|
B |-------------------------------------|
F#|-------------------------------------|X4
C#|00-00-4-3-3-0-3-4-3-00-00-4-3-3-0-3-0|

Verse:
E |------|
B |------|
F#|------| Repeated Throughout The Verse
C#|-0h4--|


Pre-Chorus:
E |-----------------------|
B |-----------------------|
F#|-----------------------|
C#|-3-3-3--3-3-3--3-3-0~--|

Chorus Is Listed Above, It Is The Same As The Intro.

Bridge:
E |--------------|
B |--------------|
F#|--------------|
C#|-4-44-3-33-1--|


E |-----------------------|
B |-----------------------|
F#|-------11~---5~---7~---| Repeated Several Times.
C#|-0~--------------------|

E |--------------------------------------------|
B |--------------------------------------------|
F#|----------11111111111111-55555555-77777777--|
C#|-00000000-----------------------------------|

E |--------------------------|
B |--------------------------|
F#|------5h7-----------------|
C#|-0000-----00-3h5p3-1h3p1--|
*Every Second Time You Do This Instead:

E |------------------------|
B |------------------------|
F#|------5h7---------------|
C#|-0000-----00-3h5p3-1~---|


Outro:
E |------------------------|
B |------------------------|
F#|------------------------|
C#|-30303-30303-0----------|

Oh Yeah!
www.limpbizkit.com
www.myspace.com/limpbizkit
Also If You Are A Limp Fan Check Out www.limpbizkitworld.com
Suggest correction
Give kudos to tab author, rate the tab!
1 2 3 4 5
comments
print report bad tab
guest
You may want to rate the tab now too:
select rating
Please do not post tabs as comments. Select "correction" instead!