Oops, an error
Loading. Please wait.

My Genaration Bass Tab

version 2
version 2

Whole song

Interactive

676 views 1 this week
no commentswrite comment
1 2 3 4 5
3 more votes to show rating
add to favorites
launch autoscroll
font size
0
reset
guitar tuner
Autoscroll
slow
fast
+/-
esc
set tempo
stop
Help us to improve Ultimate-Guitar.com Take our survey!
×
this is with a 5 string bass is my first tab so rate it thanks dedicated to my 
and lily love ya¡¡

G--------------------------------|
D--------------------------------|
A--------------------------------|
E--------------------------------|
B-2-5-2--2-5-2--5-2-2-5-2-5------|

intro chorus

G--------------------------------|
D--------------------------------|
A--------------------------------|
E--------------------------------|
B--2-2---2-2---2-----------------|
verse


G--------------------------------|
D--------------------------------|
A--------------------------------|
E--------------------------------|
B--2-2---2-2---2-----------------|
pre chorus

G--------------------------------|
D--------------------------------|
A--------------------------------|
E--------------------------------|
B---5-5--4-4---------------------|
before gets to blame

G----------------------------------|
D----------------------------------|
A-4--2-0---------------------------|
E----------------------------------|
B----------------------------------|
who gets to blame


G------------------------------------|
D------------------------------------|
A------2h4-------4-2-----------------|
E------------------------------------|
B--2-2----2-2-2----------------------|
final riff
Suggest correction
Give kudos to tab author, rate the tab!
1 2 3 4 5
comments
print report bad tab
guest
You may want to rate the tab now too:
select rating
Wanna post a correction for this tab? Suggest correction