Oops, an error
Loading. Please wait.
We have an official My Generation tab made by UG professional guitarists. Check out the tab »
×
14,217 views 3 this week
2 commentsread comments
1 2 3 4 5
x 4
add to favorites
launch autoscroll
font size
0
reset
guitar tuner
Autoscroll
slow
fast
+/-
esc
set tempo
stop
Author
YO YO YO! Heres a bitchen song by limp. Its actually in a different tuning
so sam could hit some really low heavy notes. But if you one of those lazy
people like me who cant be arsed on tuning down, heres this limp bizkit
song in normal tuning. Sorry if i miss anything out. please comment and
rate :P A.J

normal tuning
G|
D|
A|
E|

Main riff
|------------------|
|-------22---2---2-|
|-44-44----4---4---| x8
|------------------|

verse
|---------|
|---------|
|-44-44-4-| x8
|---------|

pre chorus                (I play this way)
|------------------|     |-9-9-9----9-9-9-9-|
|------------------|     |-9-9-9----9-9-9-9-|
|-7-7-7----7-7-7-7-| x2  |-7-7-7----7-7-7-7-|
|------------------|     |------------------|

Main riff
|------------------|
|-------22---2---2-|
|-44-44----4---4---| x4
|------------------|

verse
|---------|
|---------|
|-44-44-4-| x8
|---------|    

pre chorus              
|------------------|
|------------------|     
|-7-7-7----7-7-7-7-| x2 
|------------------|  

Main riff                interlude
|------------------|     |------------------|
|-------22---2---2-|     |-3---2------------|  
|-44-44----4---4---| x8  |--------3--2--(2)-|  (2) hold this note
|------------------|     |------------------|

bride
|----------------------|
|----------------------|
|-2~---7~---9~---12~---| x2
|----------------------|

|---------------------|------------------|
|---------------------|------------------|
|-444444444-7777-5555-|-44444444-7777-5~-| x6
|---------------------|------------------|

|---4-4h6------------|---4-4h6-----------|
|-------------2-2----|-------------2-----|
|-4-------4444-4-4-2-|-4-------4444-4-5~-| x8
|--------------------|-------------------|

pre chorus              
|------------------|
|------------------|     
|-7-7-7----7-7-7-7-| x2 
|------------------|  

Main riff                outro
|------------------|     |------------|---------------|
|-------22---2---2-|     |-22---2---2-|-22---2---2----|  
|-44-44----4---4---| x8  |----4---4---|----4---4---4~-|  
|------------------|     |------------|---------------|

and thats it :D please comment and rate. A.J
Suggest correction
comments
print report bad tab
2 comments total.
+2 reply
thephoenixseal@ 378 Sep 15, 2009 09:13 AM

This is one of the most accurate tabs I've ever seen,I love it! Great job ,man! Cheers,for you!!!

0 reply
andres1111 1,456 Sep 17, 2009 02:38 PM

love you to !

guest
You may want to rate the tab now too:
select rating
Wanna post a correction for this tab? Suggest correction