Oops, an error
Loading. Please wait.

My Generation Bass Tab

version 3
version 3

Whole song

Interactive

4,646 views 1 this week
no commentswrite comment
1 2 3 4 5
x 3
add to favorites
launch autoscroll
font size
0
reset
guitar tuner
Autoscroll
slow
fast
+/-
esc
set tempo
stop
Help us to improve Ultimate-Guitar.com Take our survey!
×
Author
Difficulty
Limp Bizkit - My Generation (5-String)
I enjoy playing bass, and I own a 5-String, but I
find it odd how so many people make 4-String tabs
for 5-String songs. I am here to create 5-String
tabs to various songs that need a 5-String bass.
Complicated? No! Now go play!


Main Riff:
G|------------------|
D|------------------|
A|------------------| x8
E|------------------|
B|-22-22-55-2-5-2-5-|

Verse:
G|---------|
D|---------|
A|---------|
E|---------| x8
B|-22-22-2-|

Pre-Chorus:
G|------------------|     G|------------------|
D|------------------|     D|------------------|
A|------------------| OR  A|------------------|  X2
E|------------------|     E|-0-0-0----0-0-0-0-|
B|-5-5-5----5-5-5-5-|     B|------------------|

Main Riff:
G|------------------|
D|------------------|
A|------------------| X4
E|------------------|
B|-22-22-55-2-5-2-5-|

Verse:
G|---------|
D|---------|
A|---------|
E|---------| x8
B|-22-22-2-|

Pre-Chorus:
G|------------------|     G|------------------|
D|------------------|     D|------------------|
A|------------------| OR  A|------------------|  X2
E|------------------|     E|-0-0-0----0-0-0-0-|
B|-5-5-5----5-5-5-5-|     B|------------------|

Main riff                 Interlude
G|------------------|     G|------------------|
D|------------------|     D|------------------|  
A|------------------| x8  A|------------------|
E|------------------|     E|-1---0------------|
B|-22-22-55-2-5-2-5-|     B|--------1--0---0~-|

Bridge:
G|----------------------|
D|----------------------|
A|----------------------| x2
E|-----------2~---7~----|
B|-0~---5~--------------|

G|---------------------|------------------|
D|---------------------|------------------|
A|---------------------|------------------| x6
E|---------------------|------------------|
B|-222222222-5555-3333-|-22222222-5555-3~-|

G|---4-4h6------------|---4-4h6-----------|
D|-------------2-2----|-------------2-----|
A|-4-------4444-4-4-2-|-4-------4444-4-5~-| x8
E|--------------------|-------------------|
B|--------------------|-------------------|

Pre-Chorus:
G|------------------|     G|------------------|
D|------------------|     D|------------------|
A|------------------| OR  A|------------------|  X2
E|------------------|     E|-0-0-0----0-0-0-0-|
B|-5-5-5----5-5-5-5-|     B|------------------|

Main riff                outro
G|------------------|     G|------------|---------------|
D|------------------|     D|------------|---------------|  
A|------------------| x8  A|------------|---------------|  
E|------------------|     E|------------|---------------|
B|-22-22-55-2-5-2-5-|     B|-55-2-5-2-5-|-55-2-5-2-5-2~-|
Suggest correction
Give kudos to tab author, rate the tab!
1 2 3 4 5
comments
print report bad tab
guest
You may want to rate the tab now too:
select rating
Wanna post a correction for this tab? Suggest correction