Oops, an error
Loading. Please wait.

My Own Cobain Tab

430 views 1 this week
1 commentread comment
1 2 3 4 5
3 more votes to show rating
add to favorites
launch autoscroll
font size
0
reset
how to read this tab
guitar tuner
Autoscroll
slow
fast
+/-
esc
set tempo
stop
Help us to improve Ultimate-Guitar.com Take our survey!
×
  VERSE
  Guitar 1
C#|------------------------------|
G#|------------------------------|
E|-------8------9-----7------10--|(x10)
B|------9------9-----9------9----|
F#|------------------------------|
C#|--7------7------7-----7-------|
\\\\\\\\\\\\\\\\\\\\\\\\\\\\\\\\\\\\\\\\
////////////////////////////////////////
   Guitar 2
C#|10-11-10-11-10-11-10-11-10-11--12-14-12-14-12-14-12-14-|
G#|-------------------------------------------------------|
E|--------------------------------------------------------|
B|--------------------------------------------------------|
F#|-------------------------------------------------------|
C#|-------------------------------------------------------|
Suggest correction
Give kudos to tab author, rate the tab!
1 2 3 4 5
comments
print report bad tab
1 comment total.
0 reply
bisquit 10 Jul 11, 2013 05:42 AM


E|------------------------------|
B|--------------------4------7--|
G|-------5------6---------------|(x10)
D|------6------6-----6------6---|
A|------------------------------|
E|--4------4------4-----4-------|

guest
You may want to rate the tab now too:
select rating
Wanna post a correction for this tab? Suggest correction