Oops, an error
Loading. Please wait.

My Way Tab

version 2
version 2

Whole song

14,297 views 9 this week
8 commentsread comments
1 2 3 4 5
accurate
x 5
add to favorites
launch autoscroll
font size
0
reset
how to read this tab
guitar tuner
Tab Pro tools
  • play this tab
  • loop segment
  • change instrument
  • show fretboard
  • metronome
×
Best way to learn
"My Way"
Autoscroll
slow
fast
+/-
esc
set tempo
stop
Limp Bizkit "My Way".
Tabbed by dc_10_ec@yahoo.com.
  

Intro
C#-------------------------------------------------------------
G#-----------5-------------------------------------------------
E----2-------0-------4-----------------------------------------
B----2---------------5-----------------------------------------
F#---0-------3-------------------------------------------------
C#---0---------------3-----------------------------------------

Verse (Played finger-style)
C#------------1/5-5-5--3-3-------------------------------------
G#--------------------------------5-----5----------------------
E----2--2-------------------------------------4----4-----------
B----2----2------------------5------5-------5----5-------------
F#---0--------------------3------------------------------------
C#---------------------------------------3---------------------

Chorus
C#--4--4-4-4--4-4-4--4-4-4-4-4-4-4--5--5-5-5--5-5-5--5-5-5-5-5-
G#-------------------------------------------------------------
E--------------------------------------------------------------
B---2--2-2-2--2-2-2--2-2-2-2-2-2-2--5--5-5-5--5-5-5--5-5-5-5-5-
F#--2--2-2-2--2-2-2--2-2-2-2-2-2-2--5--5-5-5--5-5-5--5-5-5-5-5-
C#--0--0-0-0--0-0-0--0-0-0-0-0-0-0--3--3-3-3--3-3-3--3-3-3-3-3-


C#--4--4-4-4--4-4-4--4-4-4-4-4-4-4--5--5-5-5--3-3-3--3-3-3-3-3-
G#-------------------------------------------------------------
E--------------------------------------------------------------
B---2--2-2-2--2-2-2--2-2-2-2-2-2-2--5--5-5-5--5-5-5--5-5-5-5-5-
F#--2--2-2-2--2-2-2--2-2-2-2-2-2-2--5--5-5-5--5-5-5--5-5-5-5-5-
C#--0--0-0-0--0-0-0--0-0-0-0-0-0-0--3--3-3-3--3-3-3--3-3-3-3-3-

Post Chorus
C#-------------------------------------------------------------
G#-------------------------------------------------------------
E--------------------------------------------------------------
B---2-2--x-x--x-2-2--x-x--x-x-2-x-x-x-x-5-5-x---5----5---x---5-
F#--2-2--x-x--x-2-2--x-x--x-x-2-x-x-x-x-5-5-x---5----5---x---5-
C#--0-0--x-x--x-0-0--x-x--x-x-0-x-x-x-x-3-3-x-0-3-0--3---x-0-3-

Interlude
C#-------------------------------------------------------------
G#-------------------------------------------------------------
E--------6---------------9----------------11-------------------
B------4--------7------7---------9------9----------12----------
F#---2--------5------5---------7------7---------10-------------
C#----------3----------------5----------------8----------------

C#-------------------------------------------------------------
G#-------------------------------------------------------------
E----------14--------------------------------------------------
B-------12------------14---------------------------------------
F#---10------------12------------------------------------------
C#--------------10---------------------------------------------

Midtro & Outro
C#---4----5----7-------4----5----3-----------------------------
G#-------------------------------------------------------------
E--------------------------------------------------------------
B----2----5----5-------2----5----5-----------------------------
F#---2----5----5-------2----5----5-----------------------------
C#---0----3----3-------0----3----3-----------------------------

 
:: Ultimate Guitar Archive :: 
http://www.ultimate-guitar.com 

comments
print report bad tab
8 comments total. Showing first comments.
0 reply
IbanezAX120 wrote on January 17 2002, 12:00 am

nice job, this is the closest tab i've seen in the whole archive, the intro is a little off and the verse is the same riff as the intro, the rest of the tab is the most impressive i've seen

0 reply
SidFix wrote on January 20 2002, 12:00 am

I have to agree good job... to fix the last cord on the intro is L-H (F#-B-E) 2-2-1 Hope it helps...

0 reply
mark_4:20 wrote on February 19 2002, 12:00 am

this is very, very, close. almost perfect, but there are a little bit of mistakes. good job

I want to post or [tab]
guest
You may want to rate the tab now too:
select rating
Please do not post tabs as comments. Select "correction" instead!