Oops, an error
Loading. Please wait.

My Way Bass Tab

version 3
version 3

Whole song

Interactive

20,451 views 39 this week
2 commentsread comments
1 2 3 4 5
excellent!
x 7
add to favorites
launch autoscroll
font size
0
reset
guitar tuner
Autoscroll
slow
fast
+/-
esc
set tempo
stop
Help us to improve Ultimate-Guitar.com Take our survey!
×
Author
Artist - Limp Bizkit
Song - My Way

This song is played on a 5 string bass, i just watched the video of it and I'm 
nearly certain the song is in standard.


Intro - The second part isn't necessary i just play it as a lead into the verse.

     x3
G|----2-----|---------|
D|-------2--|---------|
A|-4--------|-4--0----|
E|----------|-------0-|
B|----------|---------|


Verse - If you only have a four string substitute Db on B string for 9th fret on E string.

G|----------------16----------------------------16-------------|
D|------------14---------------16-----------14-----------------|
A|--------12---------------14-----------12---------------14----|
E|---------------------12----------------------------12--------|
B|--2-------------------------------2--------------------------|

Chorus

G|------------------------------------|
D|------------------------------------|
A|------------------------------------|
E|------------------------------------|
B|--2-2-2-2-2-2-2-2--5-5-5-5-5-5-5-5--|


Bridge
G|-------------------------------------------------------------|
D|----------------------------------------------11-------------|
A|------------------------13--------9--------9-------------11--|
E|-9------12----------11---------7-------7--------------9------|
B|----10-----12----9---------5----------------------7----------|


G|--------------------------------11------------|
D|---------13----------9-------9------------11--|
A|-----11-----------7------7-------------9------|
E|--9-----------5---------------------7---------|
B|----------------------------------------------|
Suggest correction
comments
print report bad tab
2 comments total.
0 reply
thephoenixseal@ 378 wrote on September 11 2009, 04:17 am

it's really close to the real thing,good job

+1 reply
MasterFailure 655 wrote on July 22 2014, 08:02 pm

You forgot the riff before the bridge and after the chorus after the bridge:

(It's a little tricky, listen the song at that part to get the right tempo)

B|-22-xx-22-xx-25-2-55--25-2-55--2-5-|

Oh and, sometimes during the chorus, Rivers do something like that:

D|-2h3-22--|
A|-------3-|

guest
You may want to rate the tab now too:
select rating
Wanna post a correction for this tab? Suggest correction