Oops, an error
Loading. Please wait.
We have an official My Way tab made by UG professional guitarists. Check out the tab »
×
475 views 30 this week
no commentswrite comment
1 2 3 4 5
2 more votes to show rating
add to favorites
×
Save as Personal and add changes to this tab that will be seen only by you. Learn more ›
×
You can save this tab as Personal to edit and correct it or add notes. All changes will be seen only by you. Learn more »
launch autoscroll
font size
0
reset
guitar tuner
backing track
0:00
0:00
edit
Autoscroll
slow
fast
+/-
esc
set tempo
stop
Artist: Limp Bizkit
Album: Chocolate Starfish and the Hot Dog Flavored Water
Track: #5 My Way

Info:
I have studied the music video and live performances of this song closely and I am 99% sure that Sam Rivers has
his bass tuned as follows; G#,C#,F#,B,D#. He uses a 5 string, but as the lowest string isn't used in this song, 
it could easily be played on a 4 string tuned to C#,F#,B,D#. I have worked out this song by ear and I'm pretty 
confident that this tab is very accurate. If you spot any imperfections,please let me know and I'll adjust the 
tab accordingly, cheers and enjoy learning the song.
Please leave me feedback if you find this tab helpful \m/

Song arrangement: (times taken from CD track)

- 0:10 - Intro              (x2)
- 0:19 - Verse pt. 1        (x2)
      \ - Verse pt. 2       (x2)
- 0:59 - Chorus pt. 1       (x1)
      \ - Chorus pt. 2      (x1)
       \ - Chorus pt. 1     (x2)
- 1:19 - Verse pt. 1        (x2)
      \ - Verse pt. 2       (x2)
- 1:58 - Chorus pt. 1       (x1)
      \ - Chorus pt. 2      (x1)
       \ - Chorus pt. 1     (x2)
- 2:18 - Interlude pt. 1    (x3)
      \ - Interlude pt. 2   (x1)
- 2:43 - Breakdown pt. 1    (x1)
      \ - Breakdown pt.2    (x1)
- 3:17 - Chorus pt. 1       (x1)
      \ - Chorus pt. 2      (x1)
       \ - Chorus pt. 1     (x2)
- 3:37 - Interlude pt. 1    (x4)

Intro:
D#|------------------------------------------| 
B |------------------------------------------|
F#|-----------------------13/15--------------|
C#|-12------------------------------------15\|
G#|------------------------------------------|

Verse pt.1:
D#|-------------------------------20\---------------------------------------------------18\-----------------|
B |-----------------------------17--------------------17-----------------------------17---------------------| 
F#|---------------------------15---------------17---------------------------------15---------------17-------|
C#|-0-------------------------------------15------------0-------------------------------------15------------|
G#|---------------------------------------------------------------------------------------------------------|

Verse pt.2:
D#|-------------------------------20\---------------------------------------------------18\-----------------|
B |-----------------------------17--------------------17-----------------------------17---------------------| 
F#|---------------------------15---------------17---------------------------------15---------------17-------|
C#|-12---\0-------------------------------15------------0-------------------------------------15------------|
G#|---------------------------------------------------------------------------------------------------------|

Chorus pt. 1:
D#|-----------------------------------------------------------|
B |-----------------------------------------------------------|
F#|-----------------------------------------------------------|
C#|-0--0-0-0--0--0-0-0-0-0-0-0-0-3--3-3-3--3--3-3-3-3-3-3-3-3-|
G#|-----------------------------------------------------------|

Chorus pt. 2:
D#|--------------------------------------------------------------|
B |--------------------------------------------------------------|
F#|---------------------------------------------------10-12-12-12|
C#|-0--0-0-0--0--0-0-0-0-0-0-0-0-3--3-3-3--3--3-3-3-3------------|
G#|--------------------------------------------------------------|

Interlude pt.1 
D#|-------------------------------------------------------|
B |-------------------------------------------------------|
F#|-------------------------------------------------------|
C#|-0--0--xx-0--x-x--x--0-3-0-3--3---0-3-0-3-3-3-3--0--3--|
G#|-------------------------------------------------------|

Interlude pt.2 
D#|-------------------------------------------|
B |-------------------------------------------|
F#|-------------------------------------------|
C#|-0--0--xx-0--x-x--x--0-3-0-3---------------|
G#|-------------------------------------------|

Breakdown pt.1 
D#|-------------------------------------|
B |-0h1/2--------------5----------------|
F#|-----------3----------------5--------|
C#|-------------------------------------|
G#|-------------------------------------|

Breakdown pt.2 
D#|-----5-----------------8----------------10-----------------13--------------|
B |---4-----------5------7--------7-------9----------10------12--------12\----|
F#|-2-----2p0---5-------5--------7------7-----7----10-------10--------12------|
C#|-----------3-----------------5--------------10-8------------------10-------|
G#|---------------------------------------------------------------------------|


            
            
Suggest correction
Creating personal tab
Creating personal tab
You can edit any tab online and save it as your Personal.

You can edit, replace or remove any tab part or add personal notes – all changes will be seen only by you.

Personal tabs can be accessed anytime from any device, even offline.
Learn more »
Give kudos to tab author, rate the tab!
1 2 3 4 5
comments
print report bad tab
guest
You may want to rate the tab now too:
select rating
Wanna post a correction for this tab? Suggest correction