Oops, an error
Loading. Please wait.

N 2 Gether Now Tab

version 2
version 2

Whole song

Interactive

1,430 views 3 this week
no commentswrite comment
1 2 3 4 5
3 more votes to show rating
add to favorites
launch autoscroll
font size
0
reset
how to read this tab
guitar tuner
Autoscroll
slow
fast
+/-
esc
set tempo
stop
Help us to improve Ultimate-Guitar.com Take our survey!
×
Author
Song : N 2 Gether Now
Artist : Limp Bizkit
Album : Greatest Hitz
Tabbed by : FlameGame (GSG)

Here is my secong tab. This is actually a improved version of all the precious tabs of 
songs...
The song is same throghout but there are sum pauses and slowing down or faster.


Intro:
e|--------------------------------|
B|11---11--11-11---11--11--11---11|
G|10---10--10-10--10--10--10--10--|
D|--------------------------------|
A|--------------------------------|
E|--------------------------------|

Here is the easy version :
e|----------13--13----13-----------|
B|11---14----------------11--15-14-|
G|---------------------------------|
D|---------------------------------|
A|---------------------------------|
E|---------------------------------|

The better version:
e|----------13--13----13-----------|
B|11---14---11--11-------11--15-14-|
G|10---10--------------------------|
D|---------------------------------|
A|---------------------------------|
E|---------------------------------|

You'll have to figure the pauses and tempo at some times yourself.
Thats all plz rate or comment....
Suggest correction
Give kudos to tab author, rate the tab!
1 2 3 4 5
comments
print report bad tab
guest
You may want to rate the tab now too:
select rating
Wanna post a correction for this tab? Suggest correction