Oops, an error
Loading. Please wait.

No Sex Tab

version 4
version 4

Whole song

Interactive

5,710 views 6 this week
1 commentread comment
1 2 3 4 5
accurate
x 3
add to favorites
launch autoscroll
font size
0
reset
how to read this tab
guitar tuner
Autoscroll
slow
fast
+/-
esc
set tempo
stop
Help us to improve Ultimate-Guitar.com Take our survey!
×
Author
Artist: Limp Bizkit
Title: No Sex
Tuning: Dropped D (DADGBe) Low to high
Tabber: a_guy_called_richard@hotmail.com

This is my first tab, and i probably have all of it wrong, 
but it sounds good to me. I know its supposed to be played 
in C#,F#,B,E,G#,C#, or something like that, but i couldn't 
be arsed to tune down to that, so i figured it out in Drop D. 
Sounds alright to me.

Also there are effects that Wes used, but i don't know them.

Verse: Clean
e|-----------------------------|
B|-----------------------------|
G|---4--------4---------2------| x10
D|-----------------------------|
A|-2---2--------------0---0----|
D|--------5---------0-------3--|

Chorus: Distortion
e|----------------------------------------------------------------------|
B|----------------------------------------------------------------------|
G|-6-6-6---------------------------6-6-6--------------------------------| x2
D|-6-6-6-7-7-7-7-7-2-2-2-1-1-1-1-1-6-6-6-7-7-7-7-7-9-9-9-10-10-10-10-10-| 
A|-4-4-4-7-7-7-7-7-2-2-2-2-2-2-2-2-4-4-4-7-7-7-7-7-9-9-9-10-10-10-10-10-|
D|-------7-7-7-7-7-2-2-2-1-1-1-1-1-------7-7-7-7-7-9-9-9-10-10-10-10-10-|

Bass plays verse once, no guitar

Verse: Clean x9

Chorus: Distortion x2

Bridge: Distortion       |            Play on 4th time             |
e|-----------------------|-----------------------------------------|
B|-----------------------|-----------------------------------------|
G|-6-6-6-6-6-6-6-6-6-6---|-----------------------------------------|
D|-6-6-6-6-6-6-6-6-6-6-7-|-9-9-9-9-9-9-9-9-10-10-10-10-10-10-10-10-|
A|-4-4-4-4-4-4-4-4-4-4-7-|-9-9-9-9-9-9-9-9-10-10-10-10-10-10-10-10-|
D|---------------------7-|-9-9-9-9-9-9-9-9-10-10-10-10-10-10-10-10-|

End of bridge: Distortion
e|-------------|
B|-------------|
G|-6-----------|
D|-6-----------|
A|-4-----------|
D|-------------|
   /\
Let ring and slowly start to bend up and 
towards the end of the 2nd bar 
bend down slowly

Interlude: Clean
e|-----------------------------|
B|-----------------------------|
G|-9-8----11~~~~----------9----| x4
D|-----------------------------|
A|---------------------7-------|
D|-------------------7---------|

Interlude 2: Clean
e|-------------------------------------|
B|-------------------------------------|
G|-------------------------------------| x4
D|6-6-6--------------------------------| 
A|4-4-4-7-7-7-7-7-9-9-9-10-10-10-10-10-|
D|------7-7-7-7-7-9-9-9-10-10-10-10-10-|

Chorus: Distortion x2

Bridge: Distortion - Slow down on the last part of the bridge and thats it.

Any questions? comments? Don't bother e-mailing me, 
it's probably not worth it.

The Legend
Suggest correction
What's this?
You can suggest a correction to this tab. Community and Mods will review your correction and vote to approve or reject it.
comments
We did not receive enough feedback on this tab! Please rate:
print report bad tab
1 2 3 4 5
1 comment total.
0 reply
bloodred16 878 wrote on July 25 2006, 06:24 pm

Great tab!! who cares what tuning it's meant to be in, it sounds great as it is!

guest
You may want to rate the tab now too:
select rating
Please do not post tabs as comments. Select "correction" instead!