Oops, an error
Loading. Please wait.

Nookie Tab

version 3
version 3
2,088 views 1 this week
no commentswrite comment
1 2 3 4 5
please rate
add to favorites
launch autoscroll
font size
0
reset
how to read this tab
guitar tuner
Autoscroll
slow
fast
+/-
esc
set tempo
stop
Help us to improve Ultimate-Guitar.com Take our survey!
×
1Group: Limp Bizkit
2Song Name: Nookie
4Release: 1999
4Submitted By: Matthew Resnick
5Email: mresn@sprintmail.com
6Song Text: CD: Significant Other
Transcribed by: Matthew Resnick(mattyresboy@netscape.net)

For this song Wes uses his customized guitar with four strings. For the lowest string he uses
 a bass A string(.085"). The other strings are normal A, D, G guitar strings. He then tuned them
all down one and one half steps. The resulting tuning is(low to high): F#, F#, B, E.

Tempo=98

Intro
E  |----------15-----------15------|
B  |-------------------------------|
F#|----------13-----------13------|  play 4 times clean and then
F#|-3/--0--0-----0h3/--0------0---|  8 times with distortion

Verses
E  |-------------------------------------|
B  |-------------------------------------|  play this clean
F#|---------13-12-------------------0---|
F#|-0-------------12/13-14-12-----------|

Pre-Chorus ("like a chump" part)
E  |-----14------14------14------14------14/15---|
B  |---------------------------------------------|  play this clean
F#|-----12------12------12------12------12/13---|
F#|-0------0--0----0--0----0--0----0--0---------|
  pm-|     pm----|  pm----|  pm----|  pm----|

Chorus
play the intro part with distortion

Bridge (soft part)
E  |-----------------------------------|
B  |-----------------------------------|
F#|-0-------0--0------0------0--------|
F#|----0--0------0--0---0--0---0--0---|

E |-----------------------------------|
B |-----------------------------------|
F#|0-------0----------0-------0-------|
F#|---0--0----0--0--0---0--0----0--0--|

E |------------------------------------------------|
B |------------------------------------------------|
F#|-10-10-10-10-10-10-10-10/15-15-15-15-15\13-13-13|
F#|-10-10-10-10-10-10-10-10/15-15-15-15-15\13-13-13|

then this
E  |----14--X-14-X--X-14--X-14---X-14/15---|
B  |---------------------------------------| with distortion
F#|----12--X-12-X--X-12--X-12---X-12/13---|
F#|-0-------------------------------------|

Outro
E  |----14----14------14-------14------14/15-----------|
B  |---------------------------------------------------|  clean
F#|----12----12------12-------12------12/13-----------|
F#|-0------0----0--0-----0--0----0--0--------10--12---|
  pm-|      pm-| pm----|    pm----|  pm----|        pm------|

Key
/=slide up
\=slide down
h=hammer on
pm=palm mute
X=muted string

submit: Send
Suggest correction
What's this?
You can suggest a correction to this tab. Community and Mods will review your correction and vote to approve or reject it.
comments
We did not receive enough feedback on this tab! Please rate:
print report bad tab
1 2 3 4 5
guest
You may want to rate the tab now too:
select rating
Please do not post tabs as comments. Select "correction" instead!