Oops, an error
Loading. Please wait.

Nookie Tab

version 5
version 5

Whole song

Interactive

220 views 6 this week
no commentswrite comment
1 2 3 4 5
2 more votes to show rating
add to favorites
launch autoscroll
font size
0
reset
how to read this tab
guitar tuner
backing track
0:00
0:00
×
Best way to learn
"Nookie"
Autoscroll
slow
fast
+/-
esc
set tempo
stop
Author
Difficulty
intermediate
So, you don't need a four string Baritone for this song, but it's up to you really...I tabbed this for
four strings, so just ignore the last two strings if you're playing this on a 6/7 string. Tune to drop B 
and lower the E string by 2.5 steps. 


-Intro

Guitar 1 (left channel) Clean

E |-------15-15------------15-----|
B |-------------------------------| X4
F#|-------13-13------------13-----|
F#|-1/-0---------0----1/-0-----0--|

Slide up to anywhere - I recommend somewhere around the 10th fret
EDIT: It's a slide up from the FIRST FRET. I studied the music video and live performances.


--------------------------------------------------------------------

-Chorus/Main Riff


Guitar 1 + 2 Distortion

E |-------15-15--------------15-----|
B |---------------------------------| X8
F#|-1/-0--13-13-------1/-0---13-----|
F#|-1/-0----------0---1/-0--------0-|

Guitar 3 (optional) Tune to C# Standard (C# F# B E G# C#)

E |---------15--------------15-----|
B |--------------------------------|  X8
F#|-5/-7--x-13--7-----5/-7--13--7--|
C#|-3/-5--x-----5-----3/-5------5--|


--------------------------------------------------------------------


-Verse


Guitar 1 Clean

E |--------------------------------|  
B |--------------------------------|  
F#|-------13-12-0--------------0---|  Repeat until Pre-Chorus
F#|-0-------------12-13-12---------|


Guitar 2 (right channel) Clean (High mid.) 

E |---15---14---14-----|
B |---14---13---13-----| Repeat until Pre-Chorus (dual with Guitar 1)
F#|--------------------|
F#|--------------------|


-Pre-Chorus

Guitar 1 + 2 Clean

E |-----14-----14-----14-----14------14-15-|
B |----------------------------------------|
F#|-x-x-12-x-x-12-x-x-12-x-x-12-x-0--12-13-| Repeat 4 times
F#|-x-x----x-x----x-x----x-x----x-0--------|


After this, play the verse once, than the chorus:



During the Chorus, this time the 2nd Guitar plays this

E |-9----8---7-----|
B |----------------|
F#|----------------|
F#|----------------|

Moving on...

Play verse - prechorus - chorus

Then...


---------------------------------------------------

-Buildup

Guitar 1 Clean

E |---------------------------------|
B |---------------------------------| Repeat until bridge
F#|-----0-----0-----0-----0-----0-0-|
F#|-0-0---0-0---0-0---0-0---0-0-----|


Around 2:39

With Flanger

E |------------------|
B |------------------|
F#|--12----12-14~----|
F#|------------------|


Guitar 2 Distortion

E |----------------|
B |----------------|
F#|----------------|
F#|-10--/15--13----|
   
 Palm mute this whole bar (keep picking these notes)


-Breakdown/Bridge



Guitar 1 and 2

E |---14----14----14----14-----14-15-|
B |----------------------------------|  8x
F#|-0-12--0-12--0-12--0-12---0-12-13-|
F#|-0-----0-----0-----0------0-------|



After this, play the chorus x8 then...

--------------------------------------------------------------------

-Outro

Just play the Pre-Chorus and pause for one bar after playing it.



****************************
|/         Slide 
|x         Dead note
|~         Vibrato 
****************************

Thanks for viewing my tab. Hopefully you can grab your guitar and jam to this fun song now... :)
Oh, and make sure you get high gauge strings for a really crunchy sound








Suggest correction
Give kudos to tab author, rate the tab!
1 2 3 4 5
comments
print report bad tab
guest
You may want to rate the tab now too:
select rating
Wanna post a correction for this tab? Suggest correction