Oops, an error
Loading. Please wait.

Nookie Tab

version 6
version 6
17,163 views 27 this week
3 commentsread comments
1 2 3 4 5
please rate
add to favorites
launch autoscroll
font size
0
reset
how to read this tab
guitar tuner
Autoscroll
slow
fast
+/-
esc
set tempo
stop
Help us to improve Ultimate-Guitar.com Take our survey!
×
Author
Limp Bizkit - Nookie
Tuning: C#, F#, B, E, G#, C#
Tabbed by: Steve Q
Wes uses a four string for this song but if you are like me and can't afford/be bothered to make
a four string guitar then this tab may help you 

Intro
Played clean x4
C#--------------------------------------------------------------------
G#--------------------------------------------------------------------
E --------------------------------------------------------------------
B -----------------5-5--4------------------5--------------------------
F#--------------------------------------------------------------------
C#---2/9---9/2----------2/9---9/2-------2-----------------------------

Slightly palm mute everything on the lowest string


Chorus  
With distortion
C#---------------------------------------------------------------------
G#---------------------------------------------------------------------
E ---------------------------------------------------------------------
B -----------4-------5-5----4----------4----5-----4--------------------
F#---------------------------------------------------------------------
C#----0----2-------------2-----0----2-----------2----------------------

Verse
This is difficult to hear but its there, I think it's:
C#--------------------------------------------- 
G#---------------------------------------------
E ---------------------------------------------
B ---------------------------------------------
F#-----------------13-12---13-12------------0--
C#---0----------------------------13-12--------

Pre-Chorus

C#-----------------------------------
G#-----------------------------------
E -----------------------------------
B ---------12---12--12--12--12/13----
F#------10---10---10--10--10/11------
C#----0----0-----0----0---0----------


Bridge

C#-------------------   | ---------------------------------------------
G#-------------------   | ---------------------------------------------
E -------------------   | ---------------------------------------------
B -------------------   | ---------------------------------------------
F#----0---0---0------   | ----10-10-10-10-10-15-15-15-15-13------------
C#--0--00-00---------   | ----10-10-10-10-10-15-15-15-15-13------------

Play the first bit palm muted 3 times then the second part once then repeat


Ending

C#-----------------------------------------------
G#-----------------------------------------------
E   ---------------------------------------------
B ---------12---12---12---12---12---12/13--------
F#-------10---10---10---10---10---10/11----------
C#----0------------------------------------10--12--

Palm mute all note on the low C# string
The second time round repeat the last two notes


Any questions or comments e-mail crunchie36@hotmail.com
Suggest correction
What's this?
You can suggest a correction to this tab. Community and Mods will review your correction and vote to approve or reject it.
comments
We did not receive enough feedback on this tab! Please rate:
print report bad tab
1 2 3 4 5
3 comments total.
0 reply
universal_man 366 wrote on February 12 2007, 09:02 am

four strings guitar????

0 reply
mudvayne2005 435 wrote on February 27 2007, 10:04 am

this one sucks

0 reply
punkguitarist01 1,374 wrote on February 27 2007, 12:16 pm

universal man: yeah i realised wes played it on a four string guitar but for some people like me, who don't have a four string guitar, i thought this might be useful to show how its played on a 6 string

mudvayne2005: thanks for the comment, no offence but that kind of comment helps nobody!!!

guest
You may want to rate the tab now too:
select rating
Please do not post tabs as comments. Select "correction" instead!