Oops, an error
Loading. Please wait.

Poison Ivy Tab

539 views 1 this week
no commentswrite comment
1 2 3 4 5
please rate
add to favorites
launch autoscroll
font size
0
reset
how to read this tab
guitar tuner
Autoscroll
slow
fast
+/-
esc
set tempo
stop
Help us to improve Ultimate-Guitar.com Take our survey!
×
Contributor
Difficulty
intermediate
Hi guys! Poison Ivy is a song that what written by Fred Durst. The song appeard in the
of Results may Vary, its an unreleased track. You can hear this awsome song on
. Just incredible. Ok, here are the tabs, i´m shure that this is the way like mike plays 
(sorry for my bad english, i´m a german pupil^^)

Limp Bizkit - - - Poison Ivy

Tuning: B F# B E G# C# (low to high)
Intro is only bass

Verse riff:  3x  then    Fill 1:          go on with verse riff 3x then fill 1--> chorus
C#---------------------  ----------------|
G#---------------------  ----------------|
E----------------------  ----------------|
B----------------------  -8--8--8--8--8--|
F#-00-00-00-00--3-5-5--  -8--8--8--8--8--|
B--00-00-00-00-0-------  -8--8--8--8--8--|
  PM-------------------------------------|

Chorus:  4x
C#-------------------|
G#-------------------|
E--------------------|
B--0~~-0~---8~--10~~-|
F#-0~~-0~---8~--10~~-|
B--0~~-0~---8~--10~~-|

Bass interlude

Verse riff 3x then Fill 1
Verse riff 3x then Fill 1
Verse riff 3x then Fill 1
Chorus, 4x

Bridge: w/wah wah (only a bit); clean
C#----------------------8-8------------------------6-6--|
G#-------8/10---10--10--------------8/10---10---10------|
E--5-7-5------7---7----------5-7-5------7----7----------|
B-------------------------------------------------------|
F#------------------------------------------------------|
B-------------------------------------------------------|

continue with: w/heavy distortion
C#----------------------8-8-----------------------6-6-|
G#-------8/10---10--10-------------8/10---10---10-----|
E--5-7-5------7---7----------5-7-5------7----7--------|
B-----------------------------------------------------|
F#----------------------------------------------------|
B-----------------------------------------------------|

C#-------------|
G#-------------|
E---7--7--7--7-|
B---7--7--7--7-|
F#--5--5--5--5-|
B---0--0--0--0-|

Chorus 4x
End Chord:
C#------|
G#------|
E-------|
B--8~~~-
F#-8~~~-
B--8~~~-

Thats all. Have fun!
comments
We did not receive enough feedback on this tab! Please rate:
print report bad tab
1 2 3 4 5
I want to post or [tab]
guest
You may want to rate the tab now too:
select rating
Please do not post tabs as comments. Select "correction" instead!