Oops, an error
Loading. Please wait.

Re-Arranged Bass

version 1
version 1

Whole song

Interactive

35,291 views 69 this week
4 commentsread comments
1 2 3 4 5
x 7
add to favorites
launch autoscroll
font size
0
reset
guitar tuner
Autoscroll
slow
fast
+/-
esc
set tempo
stop
Re-arranged - Limp Bizkit

[Riff 1] (x12)
G:---------------|----------|---------------|--------------11-|
D:--------11--9*-|-********-|-9h11p9-/8****-|-8h9p8----11-----|
A:----11---------|----------|---------------|-------9---------|
E:-9-------------|----------|---------------|-----------------|

[Riff 2]
G:-----------------|-----------------|-----------------|-----------------|-----------------|
D:-----------------|-----------------|-----------------|-----------------|-----------------|
A:-----------------|-----------------|-----------------|-6-6-6-6-6-6-6-6-|-9-9-9-9-9-9-9-9-|
E:-9-9-9-9-9-9-9-9-|-9-9-9-9-9-9-9-9-|-7-7-7-7-7-7-7-7-|-----------------|-----------------|

G:-----------------|-----------------|-----------------|
D:-----------------|-----------------|-----------------|
A:-9-9-9-9-9-9-9-9-|-7-7-7-7-7-7-7-7-|-9-9-9-9-9-9-9-9-|
E:-----------------|-----------------|-----------------|

[Riff 1] (x10)
G:---------------|----------|---------------|--------------11-|
D:--------11--9*-|-********-|-9h11p9-/8****-|-8h9p8----11-----|
A:----11---------|----------|---------------|-------9---------|
E:-9-------------|----------|---------------|-----------------|

[Riff 2] (x3)
G:-----------------|-----------------|-----------------|-----------------|-----------------|
D:-----------------|-----------------|-----------------|-----------------|-----------------|
A:-----------------|-----------------|-----------------|-6-6-6-6-6-6-6-6-|-9-9-9-9-9-9-9-9-|
E:-9-9-9-9-9-9-9-9-|-9-9-9-9-9-9-9-9-|-7-7-7-7-7-7-7-7-|-----------------|-----------------|

G:-----------------|-----------------|-----------------|
D:-----------------|-----------------|-----------------|
A:-9-9-9-9-9-9-9-9-|-7-7-7-7-7-7-7-7-|-9-9-9-9-9-9-9-9-|
E:-----------------|-----------------|-----------------|

[Riff 3] (x10)(could be slightly different)
G:-------6---6---|-------6---6---|-------4---4---|--------9---9---|
D:---------------|---------------|---------------|----------------|
A:-4--4----4---4-|-4--4----4---4-|-2--2----2---2-|-/7--7----7---7-|
E:---------------|---------------|---------------|----------------|

[Riff 4]
G:------------|--------------|--------------|-8--9*****-|
D:------------|--------------|--------------|-----------|
A:-4--4--4***-|-2/4--4--4***-|-2/4--4--4***-|-----------|
E:------------|--------------|--------------|-----------|

[Riff 1] (x4)
G:---------------|----------|---------------|--------------11-|
D:--------11--9*-|-********-|-9h11p9-/8****-|-8h9p8----11-----|
A:----11---------|----------|---------------|-------9---------|
E:-9-------------|----------|---------------|-----------------|

[End] (note: this is the best I could do to transcribe what I heard)
G:-11*******-|-********-|-9*******-|-8/11******-|-8--6--8--6-|-/12p11*******-|-9*******/-|-11*******-|
D:-----------|----------|----------|------------|------------|---------------|-----------|-----------|
A:-----------|----------|----------|------------|------------|---------------|-----------|-----------|
E:-----------|----------|----------|------------|------------|---------------|-----------|-----------|

G:-********-|-9*******-|-8/11******-|-8--6--8--6-|-/11------11--9-|-----9------8/-|-11----11*****-|
D:----------|----------|------------|------------|------11--------|-11-----11-----|----11---------|
A:----------|----------|------------|------------|----------------|---------------|---------------|
E:----------|----------|------------|------------|----------------|---------------|---------------|

G:-********-|-9*******-|-8/11******-|-8--6--8--6-|-/11------11--9-|-----9------8/-|-11------11-----|
D:----------|----------|------------|------------|------11--------|-11-----11-----|-----11------11-|
A:----------|----------|------------|------------|----------------|---------------|----------------|
E:----------|----------|------------|------------|----------------|---------------|----------------|

G:-11----------|-9----9-11-9----9----|-8--6--8--6-|-/11------11-----|-9------9-----|-/11------11***-|
D:----11******-|---11--------11---11-|------------|------11------11-|----11-----11-|------11--------|
A:-------------|---------------------|------------|-----------------|--------------|----------------|
E:-------------|---------------------|------------|-----------------|--------------|----------------|

G:-********-|-9-----------|-8/11******-|-8--6--R--R-|-R--R--11--9-|
D:----------|----11******-|------------|------------|-------------|
A:----------|-------------|------------|------------|-------------|
E:----------|-------------|------------|------------|-------------|

************************************

| h  Hammer-on
| p  Pull-off
| /  Slide up

************************************
Suggest correction
comments
print report bad tab
4 comments total. Showing first comments.
0 reply
screaming_angel 223 Jan 09, 2007 02:29 AM

nice tab man
i never knew its actually fun playin this song...

0 reply
Ro Diddy 10 Apr 08, 2010 12:29 PM

Sounds good. Sam plays it from the 9th fret also, I don't know where they got 12 on the "correction"

0 reply
MasterFailure 671 Jan 30, 2014 09:07 AM

Riff 3:

G|--------------------------------------------------------|
D|----11---11~-----11---11~------9----9~/-------13----13~-|
A|--------------------------------------------------------|
E|9-9----9-----9-9----9-----7-7----7/-----11-11----11-----|

Riff 2:

G|-------------------------------------------|
D|-------------------------------------------|
A|-------------------------------------------|
E|9(x16)-7(x8)/-11(x8)-14(x16)-12(x8)-14(x8)-|

(11 is 11th fret, 14, 14th fret, 12, 12th fret.)

guest
Wanna post a correction for this tab? Suggest correction