Oops, an error
Loading. Please wait.
70,414 views 108 this week
2 commentsread comments
1 2 3 4 5
x 12
add to favorites
×
Save as Personal and add changes to this tab that will be seen only by you. Learn more ›
×
You can save this tab as Personal to edit and correct it or add notes. All changes will be seen only by you. Learn more »
launch autoscroll
font size
0
reset
how to read this tab
guitar tuner
edit
Autoscroll
slow
fast
+/-
esc
set tempo
stop
Key of C#


[Intro]

D#|----------------------------------------------------|
A#|----------------------------------------------------|
F#|----------------------------------------------------|
C#|-7-7-7-3-3-3-0-0-0----------------------------------|
G#|-7-7-7-3-3-3-0-0-0----------------------------------|
C#|-7-7-7-3-3-3-0-0-0----------------------------------|


[Verse]

D#|----------------------------------------------------|
A#|----------------------------------------------------|
F#|----------------------------------------------------|
C#|----------------------------------------------------|
G#|------------12--------------------------------------|
C#|-12-12-12-12---17-17-17-15-15-15-14-14-12/-12/-12/--|

(second guitar in the verse  with delay and clean tone)
D#|------5----------------------------|
A#|------6-------6--------------------|
F#|--------------7--------------------|
C#|-----------------------------------|
G#|-----------------------------------|
C#|-----------------------------------|(x4)


[Chorus]
   
(heavy distortion)
D#|---------------------------------------------------|
A#|---------------------------------------------------|
F#|---------------------------------------------------|
C#|-0-0-0-7-7-7-5-5-5-3-3-0-0-2-0-3-----12/--12/--12/-|
G#|-0-0-0-7-7-7-5-5-5-3-3-0-0-2-0-3-----12/--12/--12/-|
C#|-0-0-0-7-7-7-5-5-5-3-3-0-0-2-0-3-----12/--12/--12/-|(x4)

(Hey ladies, hey....... )
D#|---------------------------|
A#|---------------------------|
F#|---------------------------|
C#|-12/-----12/-----------12--|
G#|-12/-----12/-----------12--|
C#|-12/-----12/-----------12--|


Thats the very same way wes boreland plays it i got it off watching the video and comparring tabs.


Song Order:

[Intro]                   x8
[Chorus Riff]             x4
[Verses Riffs]            x?
[Intro Riff]              x4
[Chorus]                  x4
[Verses Riffs]            x?
[Intro Riff]              x4
[Chorus]                  x4
[Hey Ladies Hey Part]     x1
[Chorus]                  x4


************************************

| /  Slide up

************************************

            
            
Suggest correction
Creating personal tab
Creating personal tab
You can edit any tab online and save it as your Personal.

You can edit, replace or remove any tab part or add personal notes – all changes will be seen only by you.

Personal tabs can be accessed anytime from any device, even offline.
Learn more »
comments
print report bad tab
2 comments total.
0 reply
nasty_santa409 100 Nov 24, 2003 07:00 PM

D#----------------------------------------------------
A#----------------------------------------------------
F#----------------------------------------------------
C#-0-0-0-7-7-7-3-3-3----------------------------------
G#-0-0-0-7-7-7-3-3-3----------------------------------
C#-0-0-0-7-7-7-3-3-3----------------------------------

You mixed up the intro, but it's still pretty good

0 reply
guitarfreak195 10 Nov 24, 2009 06:46 PM

wow this is the closest thing to sounding at all like the song

guest
Wanna post a correction for this tab? Suggest correction