Oops, an error
Loading. Please wait.

Take A Look Around Tab

version 1
version 1

Interactive

139,822 views 249 this week
13 commentsread comments
1 2 3 4 5
accurate
x 38
add to favorites
launch autoscroll
font size
0
reset
how to read this tab
guitar tuner
Autoscroll
slow
fast
+/-
esc
set tempo
stop
Help us to improve Ultimate-Guitar.com Take our survey!
×
Contributor
hey this is the tab for limp bizkit take a look around, an awesome guitar sound.
probably the best ever. ive used other tabs and compared to get the best sound. correct me if
im wrong , comment , email wotever suits u , mhaquer2000@hotmail.com

tuning drop D

[Intro Melody #1] - (Clean)
E------------------------------------------------------------------------|
B------------------------------------------------------------------------|
G------------------------------------------------------------------------|
D------------5-7p5-------------------------------------------------------|
A---7-7-7-7-7------7-7-7-7-75-6------------------------------------------|
D------------------------------------------------------------------------|


[Intro Melody #2] - (Clean 2X and then Distorted 2X, as written in the order
below, Palm Muted)
E------------------------------------------------------------------------|
B------------------------------------------------------------------------|
G------------------------------------------------------------------------|
D--------5-7p5-----------------------------------------------------------|
A---7-7-7------7-7-75-6---(7)--------------------------------------------|
D------------------------------------------------------------------------|
**Bend the last note (7) when playing this one distorted for the last time.


Mission Impossible 2 Melody -
E---15-12------15-12------15-12------15-12-------------------------------|
B---------12---------11---------10---------13-13-13-13-12-12-12----------|
G------------------------------------------------------------------------|
D------------------------------------------------------------------------|
A------------------------------------------------------------------------|
D------------------------------------------------------------------------|
play the 15-12 really quickly, and dont slide.


[Chorus #1] - (Heavy Distortion)

E-------------------------------------------------------------------------|
B-------------------------------------------------------------------------|
G-------------------------------------------------------------------------|
D-------------------------------------------------------------------------|
A-------------------------------------------------------------------------|
D----2-2-2-2-2-2--5-7-2-2-2-2-2-2--0-1------------------------------------|


[Chorus #2] - (Heavy Distortion)

E---------------------------------------------------------------------------|
B---------------------------------------------------------------------------|
G---------------------------------------------------------------------------|
D---2-2-2-2-2-2---5-7--2-2-2-2-2-2---0-1------------------------------------|
A---2-2-2-2-2-2---5-7--2-2-2-2-2-2---0-1------------------------------------|
D---2-2-2-2-2-2---5-7--2-2-2-2-2-2---0-1------------------------------------|


[Chorus #3] - (Heavy Distortion)

E------------------------------------------------------------------------|
B------------------------------------------------------------------------|
G------------------------------------------------------------------------|
D---2-2--5-7--2-2--0-1---------------------------------------------------|
A---2-2--5-7--2-2--0-1---------------------------------------------------|
D---2-2--5-7--2-2--0-1---------------------------------------------------|


The order in which to play all these tabs:

Intro Melody #1 - 8X
MI:2 Melody - 2X
Intro Melody #1 - 2X
MI:2 Melody - 2X

Chorus #1 - 4X
Chorus #2 - 2X
Chorus #2 - 2X
Intro Melody #1 - 2X
MI:2 Melody - 4X

Chorus #1 - 4X
Chorus #2 - 2X
Chorus #2 - 2X
Chorus #3 - 2X

Intro Melody #2 - 8X (Clean, Palm Muted)
Intro Melody #2 - 4X (Distorted, Bend last note)

Chorus #2 - 2X
Chorus #2 - 2X

MI:2 Melody - 4X
comments
print report bad tab
13 comments total. Showing first comments. show 1 bad comment
0 reply
Cintari 32 wrote on July 21 2002, 12:00 am

seems alrite...

0 reply
sungyy 41 wrote on January 15 2006, 01:11 pm

y bother puting A string on 7th fret if u can just play G string on 2nd?
^^^^^ u mean 3rd string.. lol

I want to post or [tab]
guest
You may want to rate the tab now too:
select rating
Please do not post tabs as comments. Select "correction" instead!