Oops, an error
Loading. Please wait.
3,145 views 1 this week
2 commentsread comments
1 2 3 4 5
1 last vote to show rating
add to favorites
×
Save as Personal and add changes to this tab that will be seen only by you. Learn more ›
×
You can save this tab as Personal to edit and correct it or add notes. All changes will be seen only by you. Learn more »
save as personal
new!
launch autoscroll
font size
0
reset
how to read this tab
guitar tuner
backing track
0:00
0:00
Autoscroll
slow
fast
+/-
esc
set tempo
stop
Limp Bizkit, Take a look around.

GUITAR TAB FOR "TAKE A LOOK AROUND" BY LIMP BIZKIT


this guitar is just piss easy it took me about 10 mins to work out.the intro uses some
distortion pedal but that dont matter.

INTRO (repeat 8 times)
E-------------------------------------|
B-------------------------------------|
G---------------1------------------ --|
D-1-1-1-1-1-4---4-1-1-1-1-1---0-------|
A-------------------------------4-----|
E-------------------------------------|

VERSE (repeat 2 times)
E-14---------14---------14---------14--------------------------|
B---16---------16---------16---------16------------------------|
G-----15---------14---------13---------16-16-16-15-15----------|
D--------------------------------------------------------------|
A--------------------------------------------------------------|
E--------------------------------------------------------------|

REPEAT INTRO 2 TIMES

REPEAT VERSE 2 TIMES

BRIDGE AND CHORUS Repeat 4 times medium for bridge them then 4 times HARDCORE for chorus
E------------------------------------------------------|-------------------------------------------|
B------------------------------------------------------|-------------------------------------------|
G------------------------------------------------------|-------------------------------------------|
D-3----5----3----5----3----5----3----5----4----6|----3----5----3----5----3----5----3----5----3----4|
A-4----6----4----6----4----6----4----6----4----6|----4----6----4----6----4----6----4----6----4----5|
E-4----6----4----6----4----6----4----6----2----4|----4----6----4----6----4----6----4----6----4----5|

repeat intro 2 times

repeat verse 4 times

repeat bridge and chorus.Repeat 4 times medium for bridge them then 4 times HARDCORE for chorus

CHORUS 2 repeat 2 times hardcore
E----------------------------------------|
B----------------------------------------|
G----------------------------------------|
D-5----5----4----6----5----5----3----4---|
A-6----6----4----6----6----6----4----5---|
E-6----6----2----4----6----6----4----5---|

wait

when fred sings "now i know why"start repeating 4 times softley then 4 times medium
E-----------------------|
B-----------------------|
G-----------1-----------|
D-1--1-1-4--1--1-1--0---|
A-------------------4---|
E-----------------------|

repeat 4 times chorus hardcore

repeat verse and fade out

thanx .hope you understant my tabing
:: Ultimate Guitar Archive ::
http://www.ultimate-guitar.com
Suggest correction
Give kudos to tab author, rate the tab!
1 2 3 4 5
comments
print report bad tab
2 comments total.
0 reply
Xironish 10 Apr 04, 2007 11:55 PM

Wrong tuning. Wes uses Drop C#. Infact, this CAN't sound right, if you tab it in standard tuning the sound will always be either one half fret to high or one half fret too low.

0 reply
Jim #4 295 Mar 21, 2015 05:23 AM

Lack of accuracy. - - - - - - - - - - - -- - - - - - -- - -

guest
Wanna post a correction for this tab? Suggest correction