Oops, an error
Loading. Please wait.
We have an official Walking Away tab made by UG professional guitarists. Check out the tab »
×
15,845 views 18 this week
7 commentsread comments
1 2 3 4 5
x 6
add to favorites
×
Save as Personal and add changes to this tab that will be seen only by you. Learn more ›
×
You can save this tab as Personal to edit and correct it or add notes. All changes will be seen only by you. Learn more »
launch autoscroll
font size
0
reset
how to read this tab
guitar tuner
edit
Autoscroll
slow
fast
+/-
esc
set tempo
stop
Author
Difficulty
Limp Bizkit - Walking Away

From the New Album Gold Cobra

Wes Borland

Standard Tuning EADGBe


INTRO {With Slight Delay}
[PART A]

 e|---------------------------------------------------------------------|
 B|---------------------------------------------------------------------|
 G|-----4-4-2h4-4-2h4-4-------4-4-2h4-4-2h4-4--------4-4-2h4-4-2h4-4----|
 D|---------------------------------------------------------------------|
 A|---------------------------------------------------------------------|
 E|-0-0-------------------0-0--------------------0-0--------------------|

 e|---------------------------------------------------------------------|
 B|---------------------------------------------------------------------|
 G|-----4-4-2h-4-4-2h4-4------------------------------------------------|
 D|---------------------------------------------------------------------|
 A|---------------------------------------------------------------------|
 E|-0-0-----------------------------------------------------------------|

[PART B]

 e|---------------------------------------------------------------------|
 B|---------------------------------------------------------------------|
 G|-----4-4-2h4-4-2h4-4-------4-4-2h4-4-2h4-4--------4-4-2h4-4-2h4-4----|
 D|---------------------------------------------------------------------|
 A|---------------------------------------------------------------------|
 E|-0-0-------------------0-0--------------------3-3--------------------|

 e|---------------------------------------------------------------------|
 B|-------------3-------------------------------------------------------|
 G|-----4-4-2-4---------------------------------------------------------|
 D|---------------------------------------------------------------------|
 A|-0-0-----------------------------------------------------------------|
 E|---------------------------------------------------------------------|

First and Last Part of Intro is PART A

VERSE - PART B of Intro

CHORUS {with Delay} {Very Slight Distortion sounds good with this}

 e|---------------------------------------------------------------------|
 B|---------------------------------------------------------------------|
 G|-----4-4-2h4-4-2h4-4-------4-4-2h4-4-2h4-4--------4-4-2h4-4-2h4-4----|
 D|---------------------------------------------------------------------|
 A|---------------------------------------------------------------------|
 E|-0-0-------------------3-3--------------------5-5--------------------|

 e|---------------------------------------------------------------------|
 B|-------------3-------------------------------------------------------|
 G|-----4-4-2-4---------------------------------------------------------|
 D|---------------------------------------------------------------------|
 A|---------------------------------------------------------------------|
 E|-0-0-----------------------------------------------------------------|

VERSE 2 - PART B 

CHORUS 2 {Heavy Distortion}

 e|---------------------------------------------------------------------|
 B|---------------------------------------------------------------------|
 G|--------4-4-4-4-4-4---------7-7-7-7-7-7---------9-9-9-9-9-9----------|
 D|--------x-x-x-x-x-x---------x-x-x-x-x-x---------x-x-x-x-x-x----------|
 A|--------2-2-2-2-2-2---------5-5-5-5-5-5---------7-7-7-7-7-7----------|
 E|-0-0--0--------------3-3--3--------------5-5--5----------------------|


 e|---------------------|
 B|---------------------|
 G|--------4-----4------|  If you wish, you can make the Root Bass notes
 D|--------x-----x------|  into power chords, but I think it sounds better
 A|--------2--2--2------|  like I've tabbed it.
 E|-0-0--0----0---------|

PRE-SOLO

 D|-----------------|
 A|-----------2---2-|
 E|-0-0--0--0---0---|

SOLO (I haven't got all of it so far, just the first bar, any Suggestions are welcome)

 e|----------------------------------------------------|
 B|----------------------------------------------------|
 G|---4tr---6tr-7tr---9tr---11-9-7--9-7-6--6-7-4-4-----|
 D|----------------------------------------------------|
 A|----------------------------------------------------|
 E|----------------------------------------------------|

The solo is just notes in that scale, which I believe to be G major 
[G A B C D E F# G] so if you improv. on that above, you can fudge it or make it fit :P

Chords to the SOLO

 D|-2-2--2---5-5--5---7-7--7---2-2--2-|
 A|-2-2--2---5-5--5---7-7--7---2-2--2-|
 E|-0-0--0---3-3--3---5-5--5---0-0--0-|


CHORUS 3 (Same as CHORUS 2){Heavy Distortion}


OUTRO - INTRO PART B. Slowdown towards the end, and finish on the D 
                                                (3rd fret B string)

Cheers, and Enjoy x

            
            
Suggest correction
Creating personal tab
Creating personal tab
You can edit any tab online and save it as your Personal.

You can edit, replace or remove any tab part or add personal notes – all changes will be seen only by you.

Personal tabs can be accessed anytime from any device, even offline.
Learn more »
comments
print report bad tab
7 comments total. Showing first comments.
0 reply
Carlos449 10 Aug 17, 2010 01:24 PM

Thought it was v good, i dont hav a delay pedel tho

+1 reply
niggl90 162 Jun 24, 2011 10:34 AM

tuning = drop C# and not standart? ^^

+3 reply
Absolute Rock-O 376 Feb 23, 2013 09:01 AM

I can play the whole solo I'll leave you the tab ;)

E|---------------------|--------------------|
B|---------------------|--------------------|
G|---------------------|--------------------|
D|---9tr---10tr-12tr---|--14tr--------------|
A|---------------------|--------------------|
E|---------------------|--------------------|

E|-----------------------------|------------------------------|
B|-----------------------------|------------------------------|
G|-----------------------------|------------------------------|
D|--16tr--12tr--14tr--11tr-----|--11----12p11--9---9~~-9~~----|
A|-----------------------------|------------------------------|
E|-----------------------------|------------------------------|

E|-----------------------------|------------------------------|
B|-----------------------------|------------------------------|
G|-----------------7---9---11--|-12-11s14-14-----11----12-----|
D|--9------7-9-10--.---.---.---|------------------------------|
A|----9-10---------------------|------------------------------|
E|-----------------------------|------------------------------|

E|------------------------------|-----------------------------|
B|------------------------------|-----------------------------|
G|--9-9tr-9-9-7-----------------|-----------------------------|
D|--------------10-9---9---9-10-|--9~~----9~~-7---------------|
A|------------------------------|---------------10---9---9----|
E|------------------------------|-----------------------------|

E|---------------------------|---------------------------------|
B|---------------------------|---------------------------------|
G|---------------------------|---------------------------------|
D|---------------------------|---------------------------------|
A|--9-----5-----5s7-7-7---7--|--5h7---7-----7---7-7---7--------|
E|---------------------------|---------------------------------|

E|------------------------------|------------------------------|
B|------------------------------|------------------------------|
G|------------------------------|------------------------------|
D|------------------------9~~---|-10~~--12~~--14~~-----9~------|
A|--7s9-----10-9---12~~---------|------------------------------|
E|------------------------------|------------------------------|

E|--------------------------------|-----------------------------|
B|--------------------------------|-----------------------------|
G|--12-----12-11-----11-9---------|------------------------9/---|
D|-----9-9-------9-9------9-9tr---|--9s10-9s7-7-7-7---7---------|
A|--------------------------------|-----------------------------|
E|--------------------------------|-----------------------------|

E|---------------------------------|---------------------------------|
B|---------------------------------|---------------------------------|
G|--17tr-16tr-14tr-12tr-11tr-------|---------------------------------|
D|---------------------------14~~--|-14------------------------------|
A|---------------------------------|----15-14-------14---------------|
E|---------------------------------|----------12-15----14---14---14--|

E|-------------------|
B|-------------------|
G|-------------------|
D|-------------------|
A|-------------------|
E|--14s15~~----------|

Very fun to play. Enjoy!

guest
You may want to rate the tab now too:
select rating
Wanna post a correction for this tab? Suggest correction