Oops, an error
Loading. Please wait.

All I Really Want Tab

3,649 views 3 this week
no commentswrite comment
1 2 3 4 5
please rate
add to favorites
launch autoscroll
font size
0
reset
how to read this tab
guitar tuner
Tab Pro tools
  • play this tab
  • loop segment
  • change instrument
  • show fretboard
  • metronome
×
Best way to learn
"All I Really Want"
Autoscroll
slow
fast
+/-
esc
set tempo
stop
Contributor
Difficulty
intermediate
Tuning: Standard

Intro:

e|----0-0---0----0-0---0----0-0---0---0-0--0-----|
B|-----0-0--------0-0--------0-0-------0-0-------|
G|-----------------------------------------------|
D|--14----14---13----13---11----11---9----9------|
A|-----------------------------------------------|
E|-----------------------------------------------|

e|---0-0--0---0-0--0-----0-0--0-----0-0---0------|
B|----0-0------0-0--------0-0--------0-----------|
G|-----------------------------------------------|
D|--7----7---6----6—--6/7----7---7/9-----9-------|
A|-----------------------------------------------|
E|-----------------------------------------------| x2

Verse:

    Lord, I love the way You love me
e|----0-0---0----0-0---0----0-0---0----0-0--0-0--|
B|-----0-0--------0-0--------0-0--------0----0---|
G|-----------------------------------------------|
D|--14----14---13----13---14----14---14---13-----|
A|-----------------------------------------------|
E|-----------------------------------------------|

    And how you move me deep within
e|----0-0---0---0-0--0-----0-0--0---0-0--0-------|
B|-----0-0-------0-0--------0-0------0-0---------|
G|-----------------------------------------------|
D|--11----11---7----7---7/9----9---9----9--------|
A|-----------------------------------------------|
E|-----------------------------------------------|

    Lord, I love the way you hold me, and draw
e|----0-0---0----0-0---0----0-0---0---0-0--0-----|
B|-----0-0--------0-0--------0-0-------0-0-------|
G|-----------------------------------------------|
D|--14----14---13----13---14----14---9----9------|
A|-----------------------------------------------|
E|-----------------------------------------------|

    me into You.     wo-ah
e|---0-0--0---0-0--0-----0-0--0---0-0--0---------|
B|----0-0------0-0--------0-0------0-0-----------|
G|-----------------------------------------------|
D|--7----7---7----7—--7/9----9---9----9----------|
A|-----------------------------------------------|
E|-----------------------------------------------|

  Lord, I love the way You bless me,
  And look into my heart.
  Lord I love the way You lead me,
  Right into your arms.    Wo-ah

Chorus:

  Here the bass guitarist simply plays:
G|-----------------------------------------------|
D|--14----13----11---—9----7----6----7----9------|
A|-----------------------------------------------|
E|-----------------------------------------------| x2

  While the lead guitar plays:

    God, I praise Thee, You amaze me.
e|--0------0------------0----0-------------------|
B|--0------0------------0----0-------------------|
G|--9------4------------6----9-------------------|
D|--9------4-------—----6----9-------------------|
A|--7------2------------4----7-------------------|
E|-----------------------------------------------|

    Take me life and let Your light shine through.
e|--0-------0--------0--------------------0------|
B|--0-------0--------0--------------------0------|
G|--6-------4--------2--------------------4------|
D|--6-------4------—-2--------------------4------|
A|--4-------2--------0--------------------2------|
E|-----------------------------------------------|

    Jesus, Savior, Friend of Sinners
e|--0------0-------0---------0-------------------|
B|--0------0-------0---------0-------------------|
G|--9------4-------6---------9-------------------|
D|--9------4-------6---------9-------------------|
A|--7------2-------4---------7-------------------|
E|-----------------------------------------------|

    Fill me up, Cause all I really want I more of You.
e|--0-------0---------0------------0-------------|
B|--0-------0---------0------------0-------------|
G|--6-------4---------2------------4-------------|
D|--6-------4------—--2------------4-------------|
A|--4-------2---------0------------2-------------|
E|-----------------------------------------------|

    Nuh-nuh-nuh-nuh-nuh  Ooooh-ooooh-oh-oh-ooh-oh-oh
e|----0-0---0----0-0---0----0-0---0---0-0--0-----|
B|-----0-0--------0-0--------0-0-------0-0-------|
G|-----------------------------------------------|
D|--14----14---13----13---11----11---9----9------|
A|-----------------------------------------------|
E|-----------------------------------------------|
    Oh-oh   Wo-ah
e|---0-0--0---0-0--0-----0-0--0-----0-0---0------|
B|----0-0------0-0--------0-0--------0-----------|
G|-----------------------------------------------|
D|--7----7---6----6—--6/7----7---7/9-----9-------|
A|-----------------------------------------------|
E|-----------------------------------------------|

(Verse)
(Chorus)

Bridge:



    La-duh-da-duh-da-duh-du-ah-daa.
e|-----0----0----0----0----0----0----0----0------|
B|------0----0----0----0----0----0----0----0-----|
G|-----------------------------------------------|
D|--9-9--9-9--9-9--9-9--9-9--9-9--9-9--9-9-------|
A|-----------------------------------------------|
E|-----------------------------------------------|

    Lord, I love You more than ever before.
e|-----0----0----0----0----0----0----0---0-------|
B|------0----0----0----0----0----0----0--0-------|
G|---------------------------------------9-------|
D|--9-9--9-9--9-9--9-9--9-9--9-9--9-9----9-------|
A|---------------------------------------7-------|
E|-----------------------------------------------|

(Chorus) x2

Strum through chorus until end.
comments
We did not receive enough feedback on this tab! Please rate:
print report bad tab
1 2 3 4 5
I want to post or [tab]
guest
You may want to rate the tab now too:
select rating
Please do not post tabs as comments. Select "correction" instead!