Oops, an error
Loading. Please wait.

Everlasting God Tab

version 1
version 1

Solo

Whole song

Interactive

79,792 views 69 this week
4 commentsread comments
1 2 3 4 5
excellent!
x 9
add to favorites
launch autoscroll
font size
0
reset
how to read this tab
guitar tuner
Autoscroll
slow
fast
+/-
esc
set tempo
stop
Help us to improve Ultimate-Guitar.com Take our survey!
×
Author
-------------------------------------------------------------------------------
                    Everlasting God (Solo) - Lincoln Brewster
-------------------------------------------------------------------------------
Tabbed by: Irondan1


Tuning: standard




e-------------------------------------------------------------|
B-------------------------------------------------------------|
G-4-4-4-4-4-6-6-6-6-8-8-8-8-9-8-8--6-4-4-6-8-9--8-6-4-6-8-6/8-|
D-------------------------------------------------------------|
A-2-2-2-2-2-4-4-4-4-6-6-6-6-7-6-6--4-2-2-4-6-7--6-4-2-4-6-4/6-|
E-------------------------------------------------------------|


e----------------12-----------------12--14--------------------|
B----------14b------14-12-----14b------------14br--12---------|
G--14b-14b----------------------------------------------------|
D-------------------------------------------------------------|
A-------------------------------------------------------------|
E-------------------------------------------------------------|


e------------------------------------------9p7---11p7---------|
B-----------12---------------------------7-----7------7-7-7---|
G--11h13p11-----13p11-----------------------------------------|
D---------------------11\9h11--9------------------------------|
A-------------------------------------------------------------|
E-------------------------------------------------------------|


e--9p7--11p7---12p7---11p7---9p7---7h11p7---9p7---7h11p7------|
B------------7------7------7-----7--------7-----7--------7----|
G-------------------------------------------------------------|
D-------------------------------------------------------------|
A-------------------------------------------------------------|
E-------------------------------------------------------------|

e--9p7---7h11p7---7-------------------------------------------|
B------7--------7--------9-11-12-11-9--------7--------7-------|
G-------------------------------------11\9------9--8-----8--9-|
D-------------------------------------------------------------|
A-------------------------------------------------------------|
E-------------------------------------------------------------|

e-------------------------------------------------------------|
B--7-------------17b--17b--17b----17b----17--16--14--16--17---|
G-----9--8----------------------------------------------------|
D-------------------------------------------------------------|
A-------------------------------------------------------------|
E-------------------------------------------------------------|

e----------18-------16-18-18hb------19b-----------------------|
B--19b--------------------------------------------------------|
G-------------------------------------------------------------|
D-------------------------------------------------------------|
A-------------------------------------------------------------|
E-------------------------------------------------------------|





| /  slide up
| \  slide down
| h  hammer-on
| p  pull-off
| ~  vibrato
| +  harmonic
| x  mute note
| b  whole step bend
| hb half step bend
| br bend and release
===============================================================================
Suggest correction
comments
print report bad tab
4 comments total. Showing first comments.
+1 reply
ScottAN 22 wrote on October 22 2007, 01:49 pm

I am basing this on your youtube performance, which was fantastic! There's an oblique bend missing from the first measure, and I'm kinda sad that the octave stuff hasn't been tabbed... but all in all this is great work.

0 reply
rokstar110 10 wrote on March 9 2008, 01:53 pm

LEGEND
~=vibrato
b=bend
br=bend release
h=hammer on
p=pull-off
/=slide to
x=deaden

beginning
e--------12-14-------12-14------------------------------------
B-12~-14b-----12~-14b-----14br-12--11h13p11--11---------------
G------------------------------------------13--13-11/9-9h11p9-
D-------------------------------------------------------------
A-------------------------------------------------------------
E-------------------------------------------------------------
also the octaves aren't strummed that many times on the beginning
e-x-x-x-x-x-x-x-x-x/x-x/x-x-x-x-x-x-x-x-x-x/x/x
B-x-x-x-x-x-x-x-x-x/x-x/x-x-x-x-x-x-x-x-x-x/x/x
G-4-4-6-6-8-8-9-8-6/8-6/4-4-6-8-9-8-6-4-6-8/7/8 x-x-x-x-x-x-x-x-x-x/x-x/x-x-x-x-x-x-x-x-x-x/x/x
A-2-2-4-4-6-6-7-6-4/6-4/2-2-4-6-7-6-4-2-4-6/5/6
E-x-x-x-x-x-x-x-x-x/x-x/x-x-x-x-x-x-x-x-x-x/x/x
on the slide above the o in on at the beginning of this sentence, u strum the first note, slide to the second, let it sound, and THEN strum the note

0 reply
DrumGuitarGuy 10 wrote on April 17 2008, 05:17 pm

Rokstar... do you know what your talking about? Dan's octave part is perfect! but I do agree with the beginning solo part...

guest
You may want to rate the tab now too:
select rating
Wanna post a correction for this tab? Suggest correction