Oops, an error
Loading. Please wait.

Here I Am To Worship Tab

version 1
version 1

Whole song

Interactive

3,568 views 27 this week
no commentswrite comment
1 2 3 4 5
accurate
x 3
add to favorites
launch autoscroll
font size
0
reset
how to read this tab
guitar tuner
Tab Pro tools
  • play this tab
  • loop segment
  • change instrument
  • show fretboard
  • metronome
Autoscroll
slow
fast
+/-
esc
set tempo
stop
Contributor
Difficulty
intermediate
----------------------------------------------------------------------------
                             Here I Am To Worship - Lincoln Brewster
----------------------------------------------------------------------------
Tabbed by: corvette_cav
Email: corvette_cav@yahoo.com

Tuning: Standard

e|-------------------------------------------------------------------------|
B|-15--13-12-10------10-12-------------------------------------------------|
G|----------------12--------12----12\7--7\0--------------------------------|
D|-------------------------------------------------------------------------|
A|-------------------------------------------------------------------------|
E|-------------------------------------------------------------------------|

e|-15-17-19--17--15b-------------------------------------------------------|
B|----------------------12-12-12-12-15h-12p--------------------------------|
G|-------------------------------------------------------------------------|
D|-------------------------------------------------------------------------|
A|-------------------------------------------------------------------------|
E|-------------------------------------------------------------------------|

e|-------------------------------------------------------------------------|
B|-12--12-13-10--10-12b---10--------12--12-13-10--10-12--------------------|
G|----------------------------12-------------------------12----------------|
D|-------------------------------------------------------------------------|
A|-------------------------------------------------------------------------|
E|-------------------------------------------------------------------------|

e|-------------------------------------------------------------------------|
B|-12--12-13-10--10-12h-13h--15h--10------12--12-13-10--10-10-12h----------|
G|-----------------------------------12----------------------------12------|
D|-------------------------------------------------------------------------|
A|-------------------------------------------------------------------------|
E|-------------------------------------------------------------------------|

e|-------------------------------------------------------------------------|
B|-------------------------------------------------------------------------|
G|-------------------------------------------------------------------------|
D|-------------------------------------------------------------------------|
A|-12/14--14-14-12-14-14---12/14--14-14-12-12-12---------------------------|
E|-------------------------------------------------------------------------|

e|-------------------------------------------------------------------------|
B|-------------------------------------------------------------------------|
G|-------------------------------------------------------------------------|
D|-------------------------------------------------------------------------|
A|--12/14--14-14-12-14-14-14-17------12/14--14-14-12-14-14-----------------|
E|------------------------------15-----------------------------------------|

e|-------------------------------------------------------------------------|
B|-------------------------------------------------------------------------|
G|-------------------------------------------------------------------------|
D|-------------------------------------------------------------------------|
A|-12/14--14-14--15-14-12-12---12/14--14-14-12-14-14-14-17-----------------|
E|----------------------------------------------------------15-------------|

e|------------------------------------------------15-17-19--20h------------|
B|-12--12-13-10--10-12b--10--------12--12-13-10----------------------------|
G|---------------------------12--------------------------------------------|
D|-------------------------------------------------------------------------|
A|-------------------------------------------------------------------------|
E|-------------------------------------------------------------------------|

e|-------------------------------------------------------------------------|
B|-12--12-13-10--10-12h-13h--15--10------12-12-13-10-10-10-12h-------------|
G|----------------------------------12--------------------------12---------|
D|-------------------------------------------------------------------------|
A|-------------------------------------------------------------------------|
E|-------------------------------------------------------------------------|

e|-------------------------------------------------------------------------|
B|-10/12--12-12-10-12-12---10/12--12-12-10-10-10---------------------------|
G|-------------------------------------------------------------------------|
D|-------------------------------------------------------------------------|
A|-------------------------------------------------------------------------|
E|-------------------------------------------------------------------------|

e|-------------------------------------------------------------------------|
B|-10/12--12-12-10-12-12-12--15------10/12--12-12-10-12-12-----------------|
G|------------------------------12-----------------------------------------|
D|-------------------------------------------------------------------------|
A|-------------------------------------------------------------------------|
E|-------------------------------------------------------------------------|

e|-------------------------------------------------------------------------|
B|-10/12--12-12--13-12-10-10---10/12--12-12-10-12-12-12-15-----------------|
G|----------------------------------------------------------12-------------|
D|-------------------------------------------------------------------------|
A|-------------------------------------------------------------------------|
E|-------------------------------------------------------------------------|

e|-------------------------------------------------------------------------|
B|-----------12--15-13-12-----------------12--15-13-12---------------------|
G|-12-14--14--------------12---12-14--14---------------12------------------|
D|-------------------------------------------------------------------------|
A|-------------------------------------------------------------------------|
E|-------------------------------------------------------------------------|

e|-------------------------------------------------------------------------|
B|-----------12--15-13-12-----------------12--15-13-12---------------------|
G|-12-14--14--------------12---12-14--14---------------12------------------|
D|-------------------------------------------------------------------------|
A|-------------------------------------------------------------------------|
E|-------------------------------------------------------------------------|

e|-------------------------------------------------------------------------|
B|-10/12--12-12-10-12-12---10/12--12-12-10-10-10---------------------------|
G|-------------------------------------------------------------------------|
D|-------------------------------------------------------------------------|
A|-------------------------------------------------------------------------|
E|-------------------------------------------------------------------------|

e|-------------------------------------------------------------------------|
B|-10/12--12-12-10-12-12-12--15------10/12--12-12-10-12-12-----------------|
G|------------------------------12-----------------------------------------|
D|-------------------------------------------------------------------------|
A|-------------------------------------------------------------------------|
E|-------------------------------------------------------------------------|

e|-------------------------------------------------------------------------|
B|-10/12--12-12--13-12-10-10---10/12--12-12-10-12-12-12-15-----------------|
G|----------------------------------------------------------12-------------|
D|-------------------------------------------------------------------------|
A|-------------------------------------------------------------------------|
E|-------------------------------------------------------------------------|

************************************

| /   slide up
| \   slide down
| h   hammer-on
| p   pull-off
| ~   vibrato
| +   harmonic
| x   Mute note
| b   Bend
| pb  Pre-bend
| br  Bend release
| pbr Pre-bend release
| brb Bend release bend

************************************
comments
We did not receive enough feedback on this tab! Please rate:
print report bad tab
1 2 3 4 5
I want to post or [tab]
guest
You may want to rate the tab now too:
select rating
Please do not post tabs as comments. Select "correction" instead!