Oops, an error
Loading. Please wait.

King Of Majesty Tab

1,288 views 1 this week
no commentswrite comment
1 2 3 4 5
3 more votes to show rating
add to favorites
launch autoscroll
font size
0
reset
how to read this tab
guitar tuner
Autoscroll
slow
fast
+/-
esc
set tempo
stop
Help us to improve Ultimate-Guitar.com Take our survey!
×
Author
Difficulty
intermediate
|-------------------------|
|-14^16-14^16-12---12-12\-|
|---------------13~---16\-|
|-------------------------|
|-------------------------|
|-------------------------|

|-----------------------------|
|---------------7---------7^9-|
|--4-4-6-6^7r6-4-7p4-6p4------|
|-6-6-------------------4-----|
|-----------------------------|
|-----------------------------|

|-----------------------------------------------------|
|-14^16-14^16r14-12/14-14----14-----------------------|
|----------------------16^18-16^18r16p13h16p13~-16^18-|
|-----------------------------------------------------|
|-----------------------------------------------------|
|-----------------------------------------------------|

|-14-------11-----------------------------------------------------|
|---12-------12---------------------------------------------------|
|-----13p11----13p11------11h13-11/13p11--------------------------|
|-------------------13p11~--------------13p11\9h11p9--------------|
|---------------------------------------------------13p11-9/11\9v-|
|-----------------------------------------------------------------|
Suggest correction
Give kudos to tab author, rate the tab!
1 2 3 4 5
comments
print report bad tab
guest
You may want to rate the tab now too:
select rating
Wanna post a correction for this tab? Suggest correction