Oops, an error
Loading. Please wait.

Let The Praise Ring Tab

4,424 views 12 this week
1 commentread comment
1 2 3 4 5
please rate
add to favorites
launch autoscroll
font size
0
reset
how to read this tab
guitar tuner
Autoscroll
slow
fast
+/-
esc
set tempo
stop
Help us to improve Ultimate-Guitar.com Take our survey!
×
Derived from the guitar pro tab.


Track 1
      S  S  S S S S S S S S S S S S S S
E||--12-11-12-0-7-5-7-0-9-7-9-0-5-4-5-0-|
B||-------------------------------------|
G||-------------------------------------|
D||-------------------------------------|
A||-------------------------------------|
E||-------------------------------------|


  S S S S S S S S S S S S S S S S
--7-5-7-0-4-2-4-0-5-4-5-0-2-0-2-0-|
----------------------------------|
----------------------------------|
----------------------------------|
----------------------------------|
----------------------------------|


  S S S S S S S S S S S S S S S S
--4-2-4-0-5-4-5-0-7-5-7-0-9-7-9-0-|
----------------------------------|
----------------------------------|
----------------------------------|
----------------------------------|
----------------------------------|


   S S S S S S S S S S S S S S  S  S
--12-0-7-0-9-0-5-0-7-0-4-0-7-0-12-11-|
-------------------------------------|
-------------------------------------|
-------------------------------------|
-------------------------------------|
-------------------------------------|


   S S S S S S S S S S S S S S S S
--12-0-7-5-7-0-9-7-9-0-5-4-5-0-7-5-|
-----------------------------------|
-----------------------------------|
-----------------------------------|
-----------------------------------|
-----------------------------------|


  S S S S S S S S S S S S S S S S
--7-0-4-2-4-0-5-4-5-0-2-0-2-0-0-0-|
----------------------------------|
----------------------------------|
----------------------------------|
----------------------------------|
----------------------------------|


  |--3--|     |--3--|     |--3--|     |--3--|
  S  S  S S S S  S  S S S S  S  S S S S  S  S
--4p-2p-0-0-0-5p-4p-0-0-0-7p-5p-0-0-0-9p-7p-0-|
----------------------------------------------|
----------------------------------------------|
----------------------------------------------|
----------------------------------------------|
----------------------------------------------|


   |--3--|
   S  S  S  S  S  S  S  S  S  S  S  S  S  Q
--16-17-16-14----17-16-14--------------------|
--------------17----------17----17-16--L-17~-|
-----------------------------16--------------|
---------------------------------------------|
---------------------------------------------|
---------------------------------------------|


Duration Legend
---------------
W - whole
H - half
Q - quarter
E - 8th
S - 16th
T - 32nd
X - 64th
. - note dotted
|-n-|  - n-tuplets


Tablature Legend
----------------
L - tied note
x - dead note
g - grace note
(n) - ghost note
> - accentuded note
NH - natural harmonic
AH - artificial harmonic
TH - tapped harmonic
SH - semi harmonic
PH - pitch harmonic
h - hammer on
p - pull off
b - bend
br - bendRelease
pb - preBend
pbr - preBendRelease
brb - bendReleaseBend
\n/ - tremolo bar dip
\n - tremolo bar dive
-/n - tremolo bar Release up
/n\ - tremolo bar inverted dip
/n - tremolo bar return
-\n - tremolo bar Release down
S - shift slide
s - legato slide
/ -  slide into from below or out of upwards
\ -  slide into from above or out of downwards
~ - vibrato
W - wide vibrato
tr - trill
TP - tremolo picking
T - tapping
S - slap
P - pop
< - fade in
^ - brush up
v - brush down
Suggest correction
Give kudos to tab author, rate the tab!
1 2 3 4 5
comments
print report bad tab
1 comment total.
0 reply
CookerTiger78 44 wrote on July 1 2014, 04:52 pm, edited on July 2 2014, 09:49 am

S S S S S S S S S S S S S S S SE||--12-11-12-0-7-5-7-0-9-7-9-0-5-4-5-0-|B||-------------------------------------|G||-------------------------------------|D||-------------------------------------|A||-------------------------------------|E||-------------------------------------|
S S S S S S S S S S S S S S S S--7-5-7-0-4-2-4-0-5-4-5-0-2-0-2-0-|----------------------------------|----------------------------------|----------------------------------|----------------------------------|----------------------------------|
S S S S S S S S S S S S S S S S--4-2-4-0-5-4-5-0-7-5-7-0-9-7-9-0-|----------------------------------|----------------------------------|----------------------------------|----------------------------------|----------------------------------|First time through after this part you don't go straight to the 12th fret, I think you play this really FAST. And then continue on to the 12th fret.--12p0-7p0-9p0-5p0-7p0-4p0-7------|----------------------------------|----------------------------------|----------------------------------|----------------------------------|----------------------------------|

guest
You may want to rate the tab now too:
select rating
Wanna post a correction for this tab? Suggest correction