Oops, an error
Loading. Please wait.

Let The Praises Tab

version 1
version 1

Solo

Whole song

2,495 views 1 this week
2 commentsread comments
1 2 3 4 5
2 more votes to show rating
add to favorites
launch autoscroll
font size
0
reset
how to read this tab
guitar tuner
Autoscroll
slow
fast
+/-
esc
set tempo
stop
Help us to improve Ultimate-Guitar.com Take our survey!
×
Difficulty
intermediate
E-------------------------------------------------------------------------|
A-------------------------------------------------------------------------|
D-------------------------------------------------------------------------|
G-------------------------------------------------------------------------|
B-------------------------------------------------------------------------|
E-0-12-11-12-0-7-5-7-0-9-7-9-0-5-4-5-0-0-7-5-7-0-4-2-4-0-5-4-5-0-2-0-2-0--|

E-------------------------------------------------------------|
A-------------------------------------------------------------|
D-------------------------------------------------------------|
G-------------------------------------------------------------|
B-------------------------------------------------------------|
E-2-4-2-0-5-4-5-0-7-5-7-0-9-7-9-0-12-0-7-0-9-0-5-0-7-0-4-0-7--|

E------------------------------------------------------------------------|
A------------------------------------------------------------------------|
D------------------------------------------------------------------------|
G------------------------------------------------------------------------|
B------------------------------------------------------------------------|
E-12-11-12-0-7-5-7-0-9-7-9-0-5-4-5-0-0-7-5-7-0-4-2-4-0-5-4-5-0-2-0-2-0---|

E--------------------------------------------------------------------|
A--------------------------------------------------------------------|
D--------------------------------------------------------------------|
G-------------------------------------------------------16-----------|
B-------------------------------------------17-------17----17-16-17--|
E-4-2-0-0-5-4-0-0-7-5-00-9-7-00-16-17-16-14----16-14-----------------|

 There you go its a great song fun Solo!!!
Suggest correction
Give kudos to tab author, rate the tab!
1 2 3 4 5
comments
print report bad tab
2 comments total.
0 reply
da_guitar_boi 20 Jul 16, 2007 08:09 PM

good but its upside down and u got it from his website

0 reply
ScottAN 22 Oct 19, 2007 06:55 PM

I've submitted a right side up powertab for this, should be up soon.

guest
You may want to rate the tab now too:
select rating
Wanna post a correction for this tab? Suggest correction