Oops, an error
Loading. Please wait.

Let The Praises Tab

version 1
version 1

Whole song

5,000 views 3 this week
3 commentsread comments
1 2 3 4 5
excellent!
x 4
add to favorites
launch autoscroll
font size
0
reset
how to read this tab
guitar tuner
Autoscroll
slow
fast
+/-
esc
set tempo
stop
Help us to improve Ultimate-Guitar.com Take our survey!
×
Author
Difficulty
intermediate
Song order: Intro,V1,C,intro,V2,C,inro,bridge,solo,C,Intro.
 /=slide up

Intro:

*=strum but mute at the same time.
  |** |
E-----|------------------------------------------------------------|
A--XX-|-777-/9--11-666--6-/7--9--7--777--9--11--14--9--12--11-7----|
D--XX-|-xxx-/x--x--xxx--x-/x--x--x--xxx--x--x---x---x--x---x--x----|
G--XX-|-999-/11-13-888--8-/9--11-9--999--11-13--16--11-14--13-9----|
B-----|------------------------------------------------------------|
e-----|------------------------------------------------------------|

Verse:
 Strum this chord palm muted. four for each beat
 1   2   3   4    or 1 2 3 4   The first way is the correct way. Though it
 xxxxxxxxxxxxxxxx    xxxxxxx       makes it harder to sing and play.

 E-oct.                        [E]  song ends on this chord.
E--0--|                      E--0--|
A--7--|                      A--2--|
D--9--|                      D--2--|
G-----|                      G--1--|
B-----|                      B--0--|
e-----|                      e--0--|
 Chorus chords:
   C#5          B5            Em5         A5
E-----|      E-----|        E--0--|     E-----|
A--4--|      A--2--|        A--2--|     A--0--|
D--6--|      D--4--|        D--2--|     D--2--|
G--6--|      G--4--|        G-----|     G--2--|
B-----|      B-----|        B-----|     B-----|
e-----|      e-----|        e-----|     e-----|

Bridge: (Acoustic)

E------------------------------------0---00--0----00--00000--|
A--7777--9--11--666-/7--3-/444--222--0h2-22--0h2--22--77777--|
D--xxxx--x--x---xxx-/x--x-/xxx--xxx--0h2-22--0h2--22--99999--|
G--9999--11-13--888-/9--5-/666--444-------------------99999--|
B------------------------------------------------------------|
e------------------------------------------------------------|

Solo: (Electric)

E-----------------------------------------------------------------------|
A-----------------------------------------------------------------------|
D-----------------------------------------------------------------------|
G-----------------------------------------------------------------------|
B-----------------------------------------------------------------------|
e-0-12-11-12-0-7-5-7-0-9-7-9-0-5-4-5-0-7-5-7-0-4-2-4-0-5-4-5-0-2-0-2-0--|

E--------------------------------------------------------------|
A--------------------------------------------------------------|
D--------------------------------------------------------------|
G--------------------------------------------------------------|
B--------------------------------------------------------------|
e--2-4-2-0-5-4-5-0-7-5-7-0-9-7-9-0-12-0-7-0-9-0-5-0-7-0-4-0-7--|

E----------------------------------------------------------------------|
A----------------------------------------------------------------------|
D----------------------------------------------------------------------|
G----------------------------------------------------------------------|
B----------------------------------------------------------------------|
e--12-11-12-0-7-5-7-0-9-7-9-0-5-4-5-0-7-5-7-0-4-2-4-0-5-4-5-0-2-0-2-0--|

E----------------------------------------------------------------------------|
A----------------------------------------------------------------------------|
D----------------------------------------------------------------------------|
G----------------------------------------------------------------16----------|
B------------------------------------------------------17-----17---17-16-17--|
e--4p2p0-00--5p4p0-00--7p5p0-00--9p7p0-00--16-17-16-14---16-14---------------|

should be correct any questions or comments, email me @ whiteboy15420@yahoo.com note: e= 
E string, E= Low E string
Suggest correction new What's this?
You can suggest a correction to this tab. Community and Mods will review your correction and vote to approve or reject it.
comments
print report bad tab
3 comments total.
0 reply
DougC84 110 wrote on October 28 2007, 02:18 am

why are all the tabs for this song UPSIDE DOWN?

0 reply
angusfan16 578 wrote on January 14 2009, 04:16 pm

Pretty accurate, but why is it upside down??

0 reply
Whiteboy_az 206 wrote on September 23 2010, 05:18 am

I accidentally started it upside down and didnt feel like changing it lol

guest
You may want to rate the tab now too:
select rating
Please do not post tabs as comments. Select "correction" instead!