Oops, an error
Loading. Please wait.

Let Your Glory Shine Tab

version 1
version 1

Whole song

Interactive

17,457 views 6 this week
4 commentsread comments
1 2 3 4 5
x 4
add to favorites
launch autoscroll
font size
0
reset
how to read this tab
guitar tuner
Autoscroll
slow
fast
+/-
esc
set tempo
stop
Help us to improve Ultimate-Guitar.com Take our survey!
×
-------------------------------------------------------------------------------
                             LET YOUR GLORY SHINE - Lincoln Brewster
-------------------------------------------------------------------------------
Tabbed by: Phil Viebeck
Email: philip.viebeck@gmail.com

Tuning: Drop D

This is an amazing song by Lincoln. It's got an awesome groove that is very hard to show 
a tab. If you listen to the song a few times, you'll get a better feel for the rhythm 
style.

Ok. I'm still working on the intro solo, but this is what I've got so far.

INTRO

Lincoln plays it differently; the notes I play on the D string (after the opening 
he plays on the G string.
It's the same notes, I find it more comfortable.

    Hand Slide (Down)
e|----\\\\\------------------------------------------------------------------|
B|----\\\\\------------------------------------------------------------------|
G|----\\\\\--7-7-------------------------------------------------------------|
D|----\\\\\--7-7------12-10--10-10-9--9-9-7--5-5--5--x-7-7--x-5---5-5--------|
A|----\\\\\--5-5--7s9-----7---7--7-5--5-5-5--2-2--3--x-5-5--x-2p0-2-3--------|
D|----\\\\\--0-0-------------------------------------------------------------|

e|---------------------------------------------------------------------------|
B|---------------------------------------------------------------------------|
G|--7-7----------------------------------------------------------------------|
D|--7-7------12-10--10-10-9--9-9-7--5-----5-----7----------------------------|
A|--5-5--7s9-----7---7--7-5--5-5-5--2-----3-----5----7b8---7b8---------------|
D|--0-0----------------------------------------------------------------------|

VERSE

"Your love won't deny me..."

e|---------------------------------------------------------------------------|
B|---------------------------------------------------------------------------|
G|--7-7-7-7-7-7-x5-5-5-4-4-4-4------7-7-7-5-------5-4---x4~-4---4-5----------|
D|--7-7-7-7-7-7-x5-5-5-5-------8b9--7-7-7-5--/5-5-----7-------7-----8b9------|
A|---------------------------------------------------------------------------|
D|---------------------------------------------------------------------------|

e|---------------------------------------------------------------------------|
B|---------------------------------------------------------------------------|
G|--7-7-7-7-7-7-x5-5-5-4-4-4-4--ss--7-7-7-5-------5-4---x4~-4---4-5----------|
D|--7-7-7-7-7-7-x5-5-5-5-5-5-5--ss--7-7-7-5--/5-5-----7-------7-----8b9------|
A|---------------------------------------------------------------------------|
D|---------------------------------------------------------------------------|


CHORUS

I've had a very hard time figuring this part out. He plucks around on a D Barre Chord, 
E Barre Chord then G Barre Chord. I'll just show the hand position.

"Let Your glory shine..."

e|---------------------------------------------------------------------------|
B|--7-----9-----------7---------------------7-----9-----------7--------------|
G|--7-----9-----4-----7---------------------7-----9-----4-----7--------------|
D|--7-----9-----5-----7---------------------7-----9-----5-----7--------------|
A|--5-----7-----5-----5-----0h2p0-3---------5-----7-----5-----5--------------|
D|--------------5-------------------3b------------------5--------------------|


PRE-VERSE

e|---------------------------------------------------------------------------|
B|---------------------------------------------------------------------------|
G|--7-7----------------------------------------------------------------------|
D|--7-7------12-10--10-10-9--9-9-7--5-5--5--x-7-7--x-5---5-5-----------------|
A|--5-5--7s9-----7---7--7-5--5-5-5--2-2--3--x-5-5--x-2p0-2-3-----------------|
D|--0-0----------------------------------------------------------------------|

e|---------------------------------------------------------------------------|
B|---------------------------------------------------------------------------|
G|--7-7----------------------------------------------------------------------|
D|--7-7------12-10--10-10-9--9-9-7--5-5-7--7h9p7p5s4-5h7p5p4-----------------|
A|--5-5--7s9-----7---7--7-5--5-5-5--2-3-5--------------------7h9p7p5-----7b8-|
D|--0-0--------------------------------------------------------------9p7-----|


VERSE

"I know Your the Savior..."

e|---------------------------------------------------------------------------|
B|---------------------------------------------------------------------------|
G|--7-7-7-7-7-7-x5-5-5-4-4-4-4-------7-7-7-5-------5-4---x4~-4---4-5---------|
D|--7-7-7-7-7-7-x5-5-5-5-5-5-5--8b9--7-7-7-5--/5-5-----7-------7-----8b9-----|
A|---------------------------------------------------------------------------|
D|---------------------------------------------------------------------------|

e|---------------------------------------------------------------------------|
B|---------------------------------------------------------------------------|
G|--7-7-7-7-7-7-x5-5-5-4-4-4-4-------7-7-7-5-------5-4---x4~-4---4-5---------|
D|--7-7-7-7-7-7-x5-5-5-5-5-5-5--8b9--7-7-7-5--/5-5-----7-------7-----8b9-----|
A|---------------------------------------------------------------------------|
D|---------------------------------------------------------------------------|


CHORUS

"Let Your glory shine..."

e|---------------------------------------------------------------------------|
B|--7-----9-----------7---------------------7-----9-----------7--------------|
G|--7-----9-----4-----7---------------------7-----9-----4-----7--------------|
D|--7-----9-----5-----7---------------------7-----9-----5-----7--------------|
A|--5-----7-----5-----5-----0h2p0-3---------5-----7-----5-----5--------------|
D|--------------5-------------------3b------------------5--------------------|


PRE-SOLO

e|---------------------------------------------------------------------------|
B|---------------------------------------------------------------------------|
G|--7-7----------------------------------------------------------------------|
D|--7-7------12-10--10-10-9--9-9-7--5--5-------------------------------------|
A|--5-5--7s9-----7---7--7-5--5-5-5--2--3-------------------------------------|
D|--0-0-----------------------------------7--6--5--3~~3~~3~~-----------------|


SOLO

e|---------------------------------------------------------------------------|
B|---------------------------------------------------------------------------|
G|-9b11r9b11b12--9b10r9-7-7--7---10-7--------12b14r12b15-12p10-8-13b15r13b14-|
D|----------------------------10----10-7-------------------------------------|
A|--------------------------------------10-8---------------------------------|
D|---------------------------------------------------------------------------|

e|---------------------------13p11--15p11--13p11--15p11--16p11--15p11--13p11-|
B|-------------------------/11-----11-----11-----11-----11-----11-----11-----|
G|---------------------------------------------------------------------------|
D|---------------------------------------------------------------------------|
A|-15p13p11-12h13h15-11b12---------------------------------------------------|
D|---------------------------------------------------------------------------|

e|---15p11--13p11--11h15p11--13p11---11h15p11--13p11---11h15p11--13p11-------|
B|-11-----11---------------11-----11---------11-----11---------11-----11-----|
G|---------------------------------------------------------------------------|
D|---------------------------------------------------------------------------|
A|---------------------------------------------------------------------------|
D|---------------------------------------------------------------------------|

    (Tremelo Pick)                 (Tremelo Pick on the way up the first 16b18)
e|--18-18-18-18-18~20~18~20~18-----16b18--16b18--14-15-15p14-----------------|
B|----------------------------------------------------------15---------------|
G|------------------------------------------------------------14~~~~---------|
D|---------------------------------------------------------------------------|
A|---------------------------------------------------------------------------|
D|---------------------------------------------------------------------------|

e|----------------------------------------------------12h13h15p13p12---------|
B|-------17p15--14b15r14----------------------12h13h15--------------15p13p12-|
G|-16p14----------------14-14--16-15-16-18-----------------------------------|
D|---------------------------------------------------------------------------|
A|---------------------------------------------------------------------------|
D|---------------------------------------------------------------------------|

e|----------------------------------------17---------------------------------|
B|-h13h15p13p12----------------------17b19~~17b19-17b19r17p16-17p16---17p16--|
G|-------------15p13p12h13h15p13p12-------------------------------16------16-|
D|-----------------------------------------------------------------16------16|
A|---------------------------------------------------------------------------|
D|---------------------------------------------------------------------------|

e|-----13-12-----------14b15r14------18-17------------19b20r19-----11-10-----|
B|---13-----13-------15------------18-----18--------20-----------11-----11---|
G|-12--------12----14------------17---------17----19-----------10------------|
D|---------------------------------------------------------------------------|
A|---------------------------------------------------------------------------|
D|---------------------------------------------------------------------------|

e|---------12h13h15p13p12----------------------------------------------------|
B|-12h13h15--------------15p13p12h13h15p13p12--------------------------------|
G|-------------------------------------------5p13p12h13h15p13p12-------------|
D|---------------------------------------------------------------------------|
A|---------------------------------------------------------------------------|
D|---------------------------------------------------------------------------|

     (Tremelo Pick)
e|--17-17-17-17-17----15-14-15p14--14b15r14-(14)b15r14-----------------------|
B|---------------------------------------------------------------------------|
G|-----------------------------------------------------7b9p5--10b12----------|
D|---------------------------------------------------------------------------|
A|---------------------------------------------------------------------------|
D|---------------------------------------------------------------------------|

e|---------------------------------------------------------------------------|
B|---------------------------------------------------------------------------|
G|-+10-+7---------------------------12-11----10-9------------9-12--11--------|
D|--------+10----------------------------12------10--------10----12----------|
A|------------+10-+8-+10-+12-+8b9---------12------10-10s12-------------------|
D|---------------------------------------------------------------------------|


And the rest of the song just repeats these sections. Except for the ending lead guitar 
He does a few cool bends but it isn't too hard to figure out.

Hope you all enjoy!


| /  slide up
| \  slide down
| h  hammer-on
| p  pull-off
| ~  vibrato
| +  harmonic
| x  Mute note
===============================================================================
Suggest correction
comments
print report bad tab
4 comments total. Showing first comments.
0 reply
Ybox460 10 Jul 12, 2009 06:01 PM

Do you know if there's a tab book for this album yet?

0 reply
Cryptic Goliath 15 Mar 27, 2010 07:55 PM

any chance that someone will put this on guitar pro or even power tab?

0 reply
TheWhiteBandit 75 Jun 05, 2011 03:00 AM

I believe that in the verse the bend from the 8b9 is supposed to be on the next string down

guest
You may want to rate the tab now too:
select rating
Wanna post a correction for this tab? Suggest correction