Oops, an error
Loading. Please wait.

Loved By You Tab

435 views 3 this week
no commentswrite comment
1 2 3 4 5
please rate
add to favorites
launch autoscroll
font size
0
reset
how to read this tab
guitar tuner
Tab Pro tools
  • play this tab
  • loop segment
  • change instrument
  • show fretboard
  • metronome
×
Best way to learn
"Loved By You"
Autoscroll
slow
fast
+/-
esc
set tempo
stop
Contributor
Difficulty
intermediate
---------------------Loved By You by Lincoln Brewster----------------------

Intro (2nd Guitarist Plays E 1bar  C#m 1bar  A 1bar

E|-12------12-11-12-19~--------12----16b-12-11-9-7------------------------|
B|-------12------------------12-------------------------------------------|
G|---8-9----------------13h14----13b--------------------------------------|
D|------------------------------------------------------------------------|
A|------------------------------------------------------------------------|
E|------------------------------------------------------------------------| 

Verse  Acoustic Plays E 1bar  C#m 1bar  A 1bar
E|-----------------------------------------------------------------------|
B|--------9--------------------------------------------------------------|
G|-9-9-11-----*As- many-as-needed--OR--------13---11-9-------------------|
D|-------------------------------------14-16-----------------------------|
A|-----------------------------------------------------------------------|
E|-----------------------------------------------------------------------| 

Pre-chorus

E|-12---12-11b--12--16b--------------------------------------------------|
B|---12-------12--12-----------------------------------------------------|
G|-----------------------------------------------------------------------|
D|-----------------------------------------------------------------------|
A|-----------------------------------------------------------------------|
E|-----------------------------------------------------------------------| 

Chorus
Just Strum each 1bar E, B, C#m, A then after first time playing the Chorus
E|-19-17-16b-----------------------12------------------------------------|
B|--------------------------------9--9b----------------------------------|
G|----------------2nd-Guitar--9h11---------------------------------------|
D|-----------------------------------------------------------------------|
A|-----------------------------------------------------------------------|
E|-----------------------------------------------------------------------| 

Post-Chorus 

2nd Guitarist E 2bars C#m 1bar A 1bar
E|--------12---------12-11-9-7b------------------------------------------|
B|------12--12b----12----------------------------------------------------|
G|-13h14-------8-9-------------------------------------------------------|
D|-----------------------------------------------------------------------|
A|-----------------------------------------------------------------------|
E|-----------------------------------------------------------------------| 


Verse (2) Acoustic E 2bars C#m 1bar  A 1bar

E|-----------19b-------------------12-----------------12-11-9-7/17-16b----|
B|--------9----------------------12--12------------12---------------------|
G|-9-9-11--------Hold-Me-Close-13------13b-11-9---------------------------|
D|------------------------------------------------------------------------|
A|------------------------------------------------------------------------|
E|------------------------------------------------------------------------| 

Chorus
Just Strum each 1bar E  B  C#m  A 
E|--------12--------------------------------------------------------------|
B|------12--12------------------------------------------------------------|
G|-13h14------------------------------------------------------------------|
D|------------------------------------------------------------------------|
A|------------------------------------------------------------------------|
E|------------------------------------------------------------------------| 

Bridge

Just Strum each 1bar  F#m  C#m  B  F#m  A  C#m   B   A 

Solo
Just Strum each 1bar Acoustic F#m, C#m, B, F#m, A, C#m, B 
E|---17--17--16--14--12----------------------------------------------------|
B|-14--14--14--14--14---14-16bb-14-14-1212-10/12-10/12-10-10-9-9-7-7h9-5---|
G|-------------------------------------------------------------------------|
D|-------------------------------------------------------------------------|
A|-------------------------------------------------------------------------|
E|-------------------------------------------------------------------------| 

E|-----------------------17--16--14--12-----------------------------------|
B|-----9h10----9h10h12-14--14--14--14--14-16b-1414-12-12-12/14-9-12-7-----|
G|-9h11----9h11-----------------------------------------------------------|
D|------------------------------------------------------------------------|
A|------------------------------------------------------------------------|
E|------------------------------------------------------------------------| 

E|---17--16--16~----------------------------------------------------------|
B|-14--14--14-------------------------------------------------------------|
G|------------------------------------------------------------------------|
D|------------------------------------------------------------------------|
A|------------------------------------------------------------------------|
E|------------------------------------------------------------------------| 

Chorus again (Once) Electric and Acoustic Guitar Just strums each chord

Ending 

Just Strum each 1bar Acoustic E  B  C#m  A
E|-19b-16b-16-14b11-14-12-9-12-11-12-9-11-7-9----7------------------------|
B|--------------------------------------------9---7--5--------------------|
G|------------------------------------------------------------------------|
D|------------------------------------------------------------------------|
A|------------------------------------------------------------------------|
E|------------------------------------------------------------------------| 

E|-19b-16b-19-14-16-16b-16-12-12-9-9--16-12-12---19--12--19b-------------|
B|-------------------------------------------------12--12---12--12-------|
G|-----------------------------------------------------------------------|
D|-----------------------------------------------------------------------|
A|-----------------------------------------------------------------------|
E|-----------------------------------------------------------------------| 

-Guitar Legend-
/ - Slide Up
\ - Slide Down
b - Bend
r - Release
~ - Hold Note
1bar : 4 counts
Strum Pattern : DDUDUDDU
comments
We did not receive enough feedback on this tab! Please rate:
print report bad tab
1 2 3 4 5
I want to post or [tab]
guest
You may want to rate the tab now too:
select rating
Please do not post tabs as comments. Select "correction" instead!