Oops, an error
Loading. Please wait.

Made New Bass Tab

7 views 1 this week
no commentswrite comment
1 2 3 4 5
3 more votes to show rating
add to favorites
launch autoscroll
font size
0
reset
guitar tuner
Autoscroll
slow
fast
+/-
esc
set tempo
stop
Help us to improve Ultimate-Guitar.com Take our survey!
×
Author
Difficulty
novice
About this tab version
This is the 5 string Bass version. Was this info helpful? Yes No
Tuning: BEADG (5-String)

(Tempo: 120)
(Time Signature: 4/4)


[Intro]

(No Bass)
G|----------------|
D|----------------|
A|----------------|
E|----------------|
B|----------------|


[Verse 1]

(No Bass)
G|----------------|
D|----------------|
A|----------------|
E|----------------|
B|----------------|


[Verse 2]

  1 + 2 + 3 + 4 +
G|----------------|----------------|----------------|----------------|
D|----------------|----------------|----------------|----------------|
A|----------------|----------------|----------------|----------------|
E|----------------|----------------|----------------|----------------|
B|8-8-8-6-6-6-6-6-|3-3-3-4-4-4-4-4-|8-8-8-6-6-6-6-6-|3-3-3-4-4-4-4-4-|

G|----------------|----------------|----------------|----------------|
D|----------------|----------------|----------------|----------------|
A|----------------|----------------|----------------|----------------|
E|----------------|----------------|----------------|----------------|
B|8-8-8-6-6-6-6-6-|3-3-3-4-4-4-4-4-|8-8-8-6-6-6-6-6-|3-3-3-4-4-4-4-4-|


[Pre Chorus 1]

  1 + 2 + 3 + 4 +
G|----------------|----------------|----------------|----------------|
D|----------------|----------------|----------------|----------------|
A|8-8---8-6---6---|5-5---5-6---6---|8-8---8-6---6---|5-5---5-6-------|
E|----------------|----------------|----------------|----------------|
B|----------------|----------------|----------------|----------------|


[Chorus 1]

  1 + 2 + 3 + 4 +
G|----------------|----------------|----------------|----------------|
D|----------------|----------------|----------------|----------------|
A|----------------|----------------|----------------|----------------|
E|----------------|----------------|----------------|6-6-6-----------|
B|8-8-8-6-6-6-6-6-|3-3-3-4-4-4-4-4-|8-8-8-6-6-6-6-6-|------4-4-4-4-4-|

G|----------------|----------------|----------------|----------------|
D|----------------|----------------|----------------|----------------|
A|----------------|----------------|----------------|----------------|
E|----------------|----------------|----------------|6-6-6-----------|
B|8-8-8-6-6-6-6-6-|3-3-3-4-4-4-4-4-|8-8-8-6-6-6-6-6-|------4-4-4-4-4-|

G|----------------|----------------|----------------|----------------|
D|----------------|----------------|----------------|----------------|
A|----------------|----------------|----------------|----------------|
E|----------------|----------------|----------------|----------------|
B|----------------|----------------|----------------|----------------|


[Verse 3]

  1 + 2 + 3 + 4 +
G|----------------|----------------|----------------|----------------|
D|----------------|----------------|----------------|----------------|
A|----------------|----------------|----------------|----------------|
E|----------------|----------------|----------------|----------------|
B|8-8-8-6-6-6-6-6-|3-3-3-4-4-4-4-4-|8-8-8-6-6-6-6-6-|3-3-3-4-4-4-4-4-|

G|----------------|----------------|----------------|----------------|
D|----------------|----------------|----------------|----------------|
A|----------------|----------------|----------------|----------------|
E|----------------|----------------|----------------|----------------|
B|8-8-8-6-6-6-6-6-|3-3-3-4-4-4-4-4-|8-8-8-6-6-6-6-6-|3-3-3-4-4-4-4-4-|



[Pre Chorus 2]

  1 + 2 + 3 + 4 +
G|----------------|----------------|----------------|----------------|
D|----------------|----------------|----------------|----------------|
A|8-8---8-6---6---|5-5---5-6---6---|8-8---8-6---6---|5-5---5-6-------|
E|----------------|----------------|----------------|----------------|
B|----------------|----------------|----------------|----------------|


[Chorus 2]

  1 + 2 + 3 + 4 +
G|----------------|----------------|----------------|----------------|
D|----------------|----------------|----------------|----------------|
A|----------------|----------------|----------------|----------------|
E|----------------|----------------|----------------|6-6-6-----------|
B|8-8-8-6-6-6-6-6-|3-3-3-4-4-4-4-4-|8-8-8-6-6-6-6-6-|------4-4-4-4-4-|

G|----------------|----------------|----------------|----------------|
D|----------------|----------------|----------------|----------------|
A|----------------|----------------|----------------|----------------|
E|----------------|----------------|----------------|6-6-6-----------|
B|8-8-8-6-6-6-6-6-|3-3-3-4-4-4-4-4-|8-8-8-6-6-6-6-6-|------4-4-4-4-4-|

G|----------------|----------------|----------------|----------------|
D|----------------|----------------|----------------|----------------|
A|----------------|----------------|----------------|----------------|
E|----------------|----------------|----------------|6-6-6-----------|
B|8-8-8-6-6-6-6-6-|3-3-3-4-4-4-4-4-|8-8-8-6-6-6-6-6-|------4-4-4-4-4-|



[Solo]
  
  1 + 2 + 3 + 4 +
G|----------------|----------------|----------------|----------------|
D|----------------|----------------|----------------|----------------|
A|----------------|----------------|----------------|----------------|
E|----------------|----------------|----------------|6-6-6-----------|
B|8-8-8-6-6-6-6-6-|3-3-3-4-4-4-4-4-|8-8-8-6-6-6-6-6-|------4-4-4-4-4-|



[Bridge 1]

  1 + 2 + 3 + 4 +
G|----------------|----------------|----------------|----------------|
D|----------------|----------------|----------------|----------------|
A|----------------|----------------|----------------|----------------|
E|----------------|----------------|----------------|----------------|
B|6-6-6-6-6-6-6-6-|8-8-8-8-8-8-8-8-|4-4-4-4-4-4-4-4-|4-4-4-4-4-4-4-4-|

G|----------------|----------------|----------------|----------------|
D|----------------|----------------|----------------|----------------|
A|----------------|----------------|----------------|----------------|
E|----------------|----------------|----------------|----------------|
B|6-6-6-6-6-6-6-6-|8-8-8-8-8-8-8-8-|4-4-4-4-4-4-4-4-|4-4-4-4-4-4-4-4-|


[Bridge 2]

  1 + 2 + 3 + 4 +
G|----------------|----------------|----------------|----------------|
D|----------------|----------------|----------------|----------------|
A|----------------|----------------|----------------|----------------|
E|----------------|----------------|----------------|----------------|
B|6-6-6-6-6-6-6-6-|8-8-8-8-8-8-8-8-|4-4-4-4-4-4-4-4-|4-4-4-4-4-4-4-4-|

G|----------------|----------------|----------------|----------------|
D|----------------|----------------|----------------|----------------|
A|----------------|----------------|----------------|----------------|
E|----------------|----------------|----------------|----------------|
B|6-6-6-6-6-6-6-6-|8-8-8-8-8-8-8-8-|4-4-4-4-4-4-4-4-|4-4-4-4-4-------|



[Chorus 3]

  1 + 2 + 3 + 4 +
G|----------------|----------------|----------------|----------------|
D|----------------|----------------|----------------|----------------|
A|----------------|----------------|----------------|----------------|
E|----------------|----------------|----------------|6-6-6-----------|
B|8-8-8-6-6-6-6-6-|3-3-3-4-4-4-4-4-|8-8-8-6-6-6-6-6-|------4-4-4-4-4-|

G|----------------|----------------|----------------|----------------|
D|----------------|----------------|----------------|----------------|
A|----------------|----------------|----------------|----------------|
E|----------------|----------------|----------------|6-6-6-----------|
B|8-8-8-6-6-6-6-6-|3-3-3-4-4-4-4-4-|8-8-8-6-6-6-6-6-|------4-4-4-4-4-|

G|----------------|----------------|----------------|----------------|
D|----------------|----------------|----------------|----------------|
A|----------------|----------------|----------------|----------------|
E|----------------|6-6-6-----------|----------------|6-6-6-----------|
B|8-8-8-6-6-6-6-6-|------4-4-4-4-4-|8-8-8-6-6-6-6-6-|------4-4-4-4-4-|


[Outro]

(No Bass)

G|----------------|
D|----------------|
A|----------------|
E|----------------|
B|----------------|
Suggest correction
Give kudos to tab author, rate the tab!
1 2 3 4 5
comments
print report bad tab
guest
You may want to rate the tab now too:
select rating
Wanna post a correction for this tab? Suggest correction