Oops, an error
Loading. Please wait.

Oxygen Tab

version 1
version 1

Whole song

  • This is a tab version (Capo 1) different than what... Show more
97 views 3 this week
no commentswrite comment
1 2 3 4 5
3 more votes to show rating
add to favorites
launch autoscroll
font size
0
reset
how to read this tab
guitar tuner
Autoscroll
slow
fast
+/-
esc
set tempo
stop
Help us to improve Ultimate-Guitar.com Take our survey!
×
Author
Difficulty
Capo
intermediate
1st fret
About this tab version
This is a tab version (Capo 1) different than what I've seen on Youtube, and I haven't found any yet on UG. Was this info helpful? Yes No
Oxygen by Lincoln Brewster      Capo 1
All tabs relative to Capo

[Intro]

    E  E  E  E  E  E  E  E     E  E  E  E  E  E  E  E   
E|--------------------------|--------------------------|
B|--------------------------|--------------------------|
G|--4--4--4--4--4--2--2--6--|--6--6--6--7--7--6--6--6--|
D|--5--5--5--5--5--4--4--7--|--7--7--7--9--9--7--7--7--|
A|--------------------------|--------------------------|
E|--------------------------|--------------------------|

    E  E  E  E  E  E  E  E     E  E  E  E  E  E  E  E   
E|--------------------------|--------------------------|
B|--------------------------|--------------------------|
G|--4--4--4--4--4--2--2--6--|--6--6--6--7--7--6--6--6--|
D|--5--5--5--5--5--4--4--7--|--7--7--7--9--9--7--7--7--|
A|--------------------------|--------------------------|
E|--------------------------|--------------------------|


[Verse 1]

    E  E  E  E  E  E  E  E     E  E  E  E  E  E  E  E   
E|--------------------------|--------------------------|
B|--------------------------|--------------------------|
G|--4--4--4--4--4--2--2--6--|--6--6--6--7--7--6--6--6--|
D|--5--5--5--5--5--4--4--7--|--7--7--7--9--9--7--7--7--|
A|--------------------------|--------------------------|
E|--------------------------|--------------------------|
     Wake up, eyes open wide to

    E  E  E  E  E  E  E  E     E  E  E  E  E  E  E  E   
E|--------------------------|--------------------------|
B|--------------------------|--------------------------|
G|--4--4--4--4--4--2--2--6--|--6--6--6--7--7--6--6--6--|
D|--5--5--5--5--5--4--4--7--|--7--7--7--9--9--7--7--7--|
A|--------------------------|--------------------------|
E|--------------------------|--------------------------|
     Mercy waiting that’s brand new

    E  E  E  E  E  E  E  E     E  E  E  E  E  E  E  E   
E|--------------------------|--------------------------|
B|--------------------------|--------------------------|
G|--4--4--4--4--4--2--2--6--|--6--6--6--7--7--6--6--6--|
D|--5--5--5--5--5--4--4--7--|--7--7--7--9--9--7--7--7--|
A|--------------------------|--------------------------|
E|--------------------------|--------------------------|
     Your love's taking me over again

    E  E  E  E  E  E  Q       E  E  E  E  E  E  E  E   
E|-------------------------|--------------------------|
B|-------------------------|--------------------------|
G|--4--4--4--4--4--2-------|-----4--4--4--4--6--6-----|
D|--5--5--5--5--5--4-------|-----5--5--5--5--7--7-----|
A|-------------------------|--------------------------|
E|-------------------------|--------------------------|
     Over again

        
[Verse 2]

    E  E  E  E  E  E  E  E     E  E  E  E  E  E  E  E   
E|--------------------------|--------------------------|
B|--------------------------|--------------------------|
G|--4--4--4--4--4--2--2--6--|--6--6--6--7--7--6--6--6--|
D|--5--5--5--5--5--4--4--7--|--7--7--7--9--9--7--7--7--|
A|--------------------------|--------------------------|
E|--------------------------|--------------------------|
     Your hands, lifting me up so

    E  E  E  E  E  E  E  E     E  E  E  E  E  E  E  E   
E|--------------------------|--------------------------|
B|--------------------------|--------------------------|
G|--4--4--4--4--4--2--2--6--|--6--6--6--7--7--6--6--6--|
D|--5--5--5--5--5--4--4--7--|--7--7--7--9--9--7--7--7--|
A|--------------------------|--------------------------|
E|--------------------------|--------------------------|
     I find wherever I go

    E  E  E  E  E  E  E  E     E  E  E  E  E  E  E  E   
E|--------------------------|--------------------------|
B|--------------------------|--------------------------|
G|--4--4--4--4--4--2--2--6--|--6--6--6--7--7--6--6--6--|
D|--5--5--5--5--5--4--4--7--|--7--7--7--9--9--7--7--7--|
A|--------------------------|--------------------------|
E|--------------------------|--------------------------|
     Your love taking me over again

    E  E  E  E  E  E  Q       E  E  E  E  E  E  E  E   
E|-------------------------|--------------------------|
B|-------------------------|--------------------------|
G|--4--4--4--4--4--2-------|-----4--4--4--4--6--6-----|
D|--5--5--5--5--5--4-------|-----5--5--5--5--7--7-----|
A|-------------------------|--------------------------|
E|-------------------------|--------------------------|
     Over again


[Chorus]

    E  E  E  E  E  E  E  E     E  E  E  E   E   E  E   E   
E|--3--3--3--3--3--3--3--3--|-----------------------------|
B|--3--3--3--3--3--3--3--3--|-----------------------------|
G|--0--0--0--0--0--0--0--0--|--2--2--2--------------------|
D|--0--0--0--0--0--0--0--0--|--2--2--2--------------------|
A|--------------------------|--0--0--0-------------2h--5--|
E|--3--3--3--3--3--3--3--3--|-----------0h--2h--5---------|
  You are life,              every breath

    E  E  E  E  E  E  E  E     E  E  E  E  E  E  E  E   
E|--3--3--3--3--3--3--3--3--|--------------------------|
B|--3--3--3--3--3--3--3--3--|--3--3--3--3--3--3--3--3--|
G|--0--0--0--0--0--0--0--0--|--2--2--2--2--2--2--2--2--|
D|--------------------------|--0--0--0--0--0--0--0--0--|
A|--2--2--2--2--2--2--2--2--|--------------------------|
E|--------------------------|--2--2--2--2--2--2--2--2--|
  You're the heart           beating in my chest

    E  E  E  E  E  E  E  E     E  E  E  E   E   E  E   E   
E|--3--3--3--3--3--3--3--3--|-----------------------------|
B|--3--3--3--3--3--3--3--3--|-----------------------------|
G|--0--0--0--0--0--0--0--0--|--2--2--2--------------------|
D|--0--0--0--0--0--0--0--0--|--2--2--2--------------------|
A|--------------------------|--0--0--0-------------2h--5--|
E|--3--3--3--3--3--3--3--3--|-----------0h--2h--5---------|
  I breathe out              and breathe You in

    E  E  E  E  E  E  E  E     E  E  E  E  E  E  E  E   
E|--3--3--3--3--3--3--3--3--|--------------------------|
B|--3--3--3--3--3--3--3--3--|--------------------------|
G|--0--0--0--0--0--0--0--0--|--6--6--6--6--6--6--6--6--|
D|--------------------------|--7--7--7--7--7--7--7--7--|
A|--2--2--2--2--2--2--2--2--|--4--4--4--4--4--4--4--4--|
E|--------------------------|--------------------------|
  I need You                 more than oxygen


    E  E  E  E  E  E  E  E     E  E  E  E  Q    Q     
E|--------------------------|------------------------|
B|--------------------------|------------------------|
G|--4--4--4--4--4--2-----6--|-----6-----7--7----6----|
D|--5--5--5--5--5--4-----7--|-----7-----9--9----7----|
A|--------------------------|------------------------|
E|--------------------------|------------------------|
                                More than oxygen

    E  E  E  E  E  E  E  E     E  E  E  E  Q    Q     
E|--------------------------|------------------------|
B|--------------------------|------------------------|
G|--4--4--4--4--4--2-----6--|-----6-----7--7----6----|
D|--5--5--5--5--5--4-----7--|-----7-----9--9----7----|
A|--------------------------|------------------------|
E|--------------------------|------------------------|

[Verse 3]

    E  E  E  E  E  E  E  E     E  E  E  E  E  E  E  E   
E|--------------------------|--------------------------|
B|--------------------------|--------------------------|
G|--4--4--4--4--4--2--2--6--|--6--6--6--7--7--6--6--6--|
D|--5--5--5--5--5--4--4--7--|--7--7--7--9--9--7--7--7--|
A|--------------------------|--------------------------|
E|--------------------------|--------------------------|
     Each step, I find that You are

    E  E  E  E  E  E  E  E     E  E  E  E  E  E  E  E   
E|--------------------------|--------------------------|
B|--------------------------|--------------------------|
G|--4--4--4--4--4--2--2--6--|--6--6--6--7--7--6--6--6--|
D|--5--5--5--5--5--4--4--7--|--7--7--7--9--9--7--7--7--|
A|--------------------------|--------------------------|
E|--------------------------|--------------------------|
     Speaking Your will to my heart

    E  E  E  E  E  E  E  E     E  E  E  E  E  E  E  E   
E|--------------------------|--------------------------|
B|--------------------------|--------------------------|
G|--4--4--4--4--4--2--2--6--|--6--6--6--7--7--6--6--6--|
D|--5--5--5--5--5--4--4--7--|--7--7--7--9--9--7--7--7--|
A|--------------------------|--------------------------|
E|--------------------------|--------------------------|
     Your love leading me all of the way

    E  E  E  E  E  E  Q       E  E  E  E  E  E  E  E   
E|-------------------------|--------------------------|
B|-------------------------|--------------------------|
G|--4--4--4--4--4--2-------|-----4--4--4--4--6--6-----|
D|--5--5--5--5--5--4-------|-----5--5--5--5--7--7-----|
A|-------------------------|--------------------------|
E|-------------------------|--------------------------|
     All of the way


[Verse 4]

    E  E  E  E  E  E  E  E     E  E  E  E  E  E  E  E   
E|--------------------------|--------------------------|
B|--------------------------|--------------------------|
G|--4--4--4--4--4--2--2--6--|--6--6--6--7--7--6--6--6--|
D|--5--5--5--5--5--4--4--7--|--7--7--7--9--9--7--7--7--|
A|--------------------------|--------------------------|
E|--------------------------|--------------------------|
     You speak, I am an echo

    E  E  E  E  E  E  E  E     E  E  E  E  E  E  E  E   
E|--------------------------|--------------------------|
B|--------------------------|--------------------------|
G|--4--4--4--4--4--2--2--6--|--6--6--6--7--7--6--6--6--|
D|--5--5--5--5--5--4--4--7--|--7--7--7--9--9--7--7--7--|
A|--------------------------|--------------------------|
E|--------------------------|--------------------------|
     Your voice, I choose to follow

    E  E  E  E  E  E  E  E     E  E  E  E  E  E  E  E   
E|--------------------------|--------------------------|
B|--------------------------|--------------------------|
G|--4--4--4--4--4--2--2--6--|--6--6--6--7--7--6--6--6--|
D|--5--5--5--5--5--4--4--7--|--7--7--7--9--9--7--7--7--|
A|--------------------------|--------------------------|
E|--------------------------|--------------------------|
     Your love leading me all the way

    E  E  E  E  E  E  Q       E  E  E  E  E  E  E  E   
E|-------------------------|--------------------------|
B|-------------------------|--------------------------|
G|--4--4--4--4--4--2-------|-----4--4--4--4--6--6-----|
D|--5--5--5--5--5--4-------|-----5--5--5--5--7--7-----|
A|-------------------------|--------------------------|
E|-------------------------|--------------------------|
     All of the way

[Chorus]

    E  E  E  E  E  E  E  E     E  E  E  E   E   E  E   E   
E|--3--3--3--3--3--3--3--3--|-----------------------------|
B|--3--3--3--3--3--3--3--3--|-----------------------------|
G|--0--0--0--0--0--0--0--0--|--2--2--2--------------------|
D|--0--0--0--0--0--0--0--0--|--2--2--2--------------------|
A|--------------------------|--0--0--0-------------2h--5--|
E|--3--3--3--3--3--3--3--3--|-----------0h--2h--5---------|
  You are life,              every breath

    E  E  E  E  E  E  E  E     E  E  E  E  E  E  E  E   
E|--3--3--3--3--3--3--3--3--|--------------------------|
B|--3--3--3--3--3--3--3--3--|--3--3--3--3--3--3--3--3--|
G|--0--0--0--0--0--0--0--0--|--2--2--2--2--2--2--2--2--|
D|--------------------------|--0--0--0--0--0--0--0--0--|
A|--2--2--2--2--2--2--2--2--|--------------------------|
E|--------------------------|--2--2--2--2--2--2--2--2--|
  You're the heart           beating in my chest

    E  E  E  E  E  E  E  E     E  E  E  E   E   E  E   E   
E|--3--3--3--3--3--3--3--3--|-----------------------------|
B|--3--3--3--3--3--3--3--3--|-----------------------------|
G|--0--0--0--0--0--0--0--0--|--2--2--2--------------------|
D|--0--0--0--0--0--0--0--0--|--2--2--2--------------------|
A|--------------------------|--0--0--0-------------2h--5--|
E|--3--3--3--3--3--3--3--3--|-----------0h--2h--5---------|
  I breathe out              and breathe You in

    E  E  E  E  E  E  E  E     E  E  E  E  E  E  E  E   
E|--3--3--3--3--3--3--3--3--|--------------------------|
B|--3--3--3--3--3--3--3--3--|--------------------------|
G|--0--0--0--0--0--0--0--0--|--6--6--6--6--6--6--6--6--|
D|--------------------------|--7--7--7--7--7--7--7--7--|
A|--2--2--2--2--2--2--2--2--|--4--4--4--4--4--4--4--4--|
E|--------------------------|--------------------------|
  I need You                 more than oxygen

    E  E  E  E  E  E  E  E     E  E  E  E  Q    Q     
E|--------------------------|------------------------|
B|--------------------------|------------------------|
G|--4--4--4--4--4--2-----6--|-----6-----7--7----6----|
D|--5--5--5--5--5--4-----7--|-----7-----9--9----7----|
A|--------------------------|------------------------|
E|--------------------------|------------------------|
                                More than oxygen

                                                 
    E  E  E  E  E  E  E  E     E  E  E  E  Q    E   E     
E|--------------------------|------------------------|
B|--------------------------|------------------------|
G|--4--4--4--4--4--2-----6--|-----6-----7--7----6----|
D|--5--5--5--5--5--4-----7--|-----7-----9--9----7----|
A|--------------------------|------------------------|
E|--------------------------|------------------------|


[Solo]

    E    E   E  E   E  E  E  E  E     E  E  E  E  E  E   E     E   
E|----|--10------9------7-----5-----|--3-----2-----0---------------|
B|----|--------------------7-----5--|-----5-----3-----2--/3~-------|
G|-/11|------11-----11--------------|-------------------------/11--|
D|----|-----------------------------|------------------------------|
A|----|-----------------------------|------------------------------|
E|----|-----------------------------|------------------------------|


     E   E  E   E  E  E  E  E     E  E  E  E  E  E   Q      
E|--10------9------7-----5-----|--3-----2-----0------------|
B|--------------------7-----5--|-----5-----3-----2--/3~----|
G|------11-----11--------------|---------------------------|
D|-----------------------------|---------------------------|
A|-----------------------------|---------------------------|
E|-----------------------------|---------------------------|


     S  S  S  S  S  S  S  S  S  S  S  S  S  S S S    S S S S S S  S  S  S  S  S  S  S  S  S  S  
E|--10-10-10-10-10-10-14-14-14-14-14-14-14-14-9-9-|--9-9-9-9-9-9-12-12-12-12-12-12-12-12-10-10-|
B|------------------------------------------------|--------------------------------------------|
G|------------------------------------------------|--------------------------------------------|
D|------------------------------------------------|--------------------------------------------|
A|------------------------------------------------|--------------------------------------------|
E|------------------------------------------------|--------------------------------------------|


     S  S  S  S  S  S  S  S  S  S  S  S  S  S  S  S     S  S  S  S  S  S  E   H        
E|--10-10-10-10-10-10-14-14-14-14-14-14-14-14-12-12-|--12-12-12-12-12-12-17b~-L~----|
B|--------------------------------------------------|-------------------------------|
G|--------------------------------------------------|-------------------------------|
D|--------------------------------------------------|-------------------------------|
A|--------------------------------------------------|-------------------------------|
E|--------------------------------------------------|-------------------------------|

[Bridge]

    E  E  E  E  E  E  E  E     E  E  E  E  E  E  E  E   
E|--3--3--3--3--3--3--3--3--|--------------------------|
B|--3--3--3--3--3--3--3--3--|--------------------------|
G|--0--0--0--0--0--0--0--0--|--6--6--6--6--6--6--6--6--|
D|--------------------------|--7--7--7--7--7--7--7--7--|
A|--2--2--2--2--2--2--2--2--|--4--4--4--4--4--4--4--4--|
E|--------------------------|--------------------------|
  I need You                 more than anything

    E  E  E  E  E  E  E  E     E  E  E  E  E  E  E  E   
E|--3--3--3--3--3--3--3--3--|--------------------------|
B|--3--3--3--3--3--3--3--3--|--3--3--3--3--3--3--3--3--|
G|--0--0--0--0--0--0--0--0--|--2--2--2--2--2--2--2--2--|
D|--------------------------|--0--0--0--0--0--0--0--0--|
A|--2--2--2--2--2--2--2--2--|--------------------------|
E|--------------------------|--2--2--2--2--2--2--2--2--|
                             More than oxygen


    E  E  E  E  E  E  E  E     E  E  E  E  E  E  E  E   
E|--3--3--3--3--3--3--3--3--|--------------------------|
B|--3--3--3--3--3--3--3--3--|--------------------------|
G|--0--0--0--0--0--0--0--0--|--6--6--6--6--6--6--6--6--|
D|--------------------------|--7--7--7--7--7--7--7--7--|
A|--2--2--2--2--2--2--2--2--|--4--4--4--4--4--4--4--4--|
E|--------------------------|--------------------------|
  I need You                 more than anything

    E  E  E  E  E  E  E  E     E  E  E  E  E  E  E  E   
E|--3--3--3--3--3--3--3--3--|--------------------------|
B|--3--3--3--3--3--3--3--3--|--3--3--3--3--3--3--3--3--|
G|--0--0--0--0--0--0--0--0--|--2--2--2--2--2--2--2--2--|
D|--------------------------|--0--0--0--0--0--0--0--0--|
A|--2--2--2--2--2--2--2--2--|--------------------------|
E|--------------------------|--2--2--2--2--2--2--2--2--|
                             More than oxygen

       E  E  E  E  E  E  E  E     E  E  E  E  E  E  E  E   
E|--------------------------|--------------------------|
B|--------------------------|--------------------------|
G|--4--4--4--4--4--2--2--6--|--6--6--6--7--7--6--6--6--|
D|--5--5--5--5--5--4--4--7--|--7--7--7--9--9--7--7--7--|
A|--------------------------|--------------------------|
E|--------------------------|--------------------------|
                 More than oxygen

    E  E  E  E  E  E  E  E     E  E  E  E  E  E  E  E   
E|--------------------------|--------------------------|
B|--------------------------|--------------------------|
G|--4--4--4--4--4--2--2--6--|--6--6--6--7--7--6--6--6--|
D|--5--5--5--5--5--4--4--7--|--7--7--7--9--9--7--7--7--|
A|--------------------------|--------------------------|
E|--------------------------|--------------------------|
                 More than oxygen

    E  E  E  E  E  E  E  E     E  E  E  E  E  E  E  E   
E|--------------------------|--------------------------|
B|--------------------------|--------------------------|
G|--4--4--4--4--4--2--2--6--|--6--6--6--7--7--6--6--6--|
D|--5--5--5--5--5--4--4--7--|--7--7--7--9--9--7--7--7--|
A|--------------------------|--------------------------|
E|--------------------------|--------------------------|
                 More than oxygen


[Chorus]

    E  E  E  E  E  E  E  E     E  E  E  E   E   E  E   E   
E|--3--3--3--3--3--3--3--3--|-----------------------------|
B|--3--3--3--3--3--3--3--3--|-----------------------------|
G|--0--0--0--0--0--0--0--0--|--2--2--2--------------------|
D|--0--0--0--0--0--0--0--0--|--2--2--2--------------------|
A|--------------------------|--0--0--0-------------2h--5--|
E|--3--3--3--3--3--3--3--3--|-----------0h--2h--5---------|
  You are life,              every breath

    E  E  E  E  E  E  E  E     E  E  E  E  E  E  E  E   
E|--3--3--3--3--3--3--3--3--|--------------------------|
B|--3--3--3--3--3--3--3--3--|--3--3--3--3--3--3--3--3--|
G|--0--0--0--0--0--0--0--0--|--2--2--2--2--2--2--2--2--|
D|--------------------------|--0--0--0--0--0--0--0--0--|
A|--2--2--2--2--2--2--2--2--|--------------------------|
E|--------------------------|--2--2--2--2--2--2--2--2--|
  You're the heart           beating in my chest

    E  E  E  E  E  E  E  E     E  E  E  E   E   E  E   E   
E|--3--3--3--3--3--3--3--3--|-----------------------------|
B|--3--3--3--3--3--3--3--3--|-----------------------------|
G|--0--0--0--0--0--0--0--0--|--2--2--2--------------------|
D|--0--0--0--0--0--0--0--0--|--2--2--2--------------------|
A|--------------------------|--0--0--0-------------2h--5--|
E|--3--3--3--3--3--3--3--3--|-----------0h--2h--5---------|
  I breathe out              and breathe You in

    E  E  E  E  E  E  E  E     E  E  E  E  E  E  E  E   
E|--3--3--3--3--3--3--3--3--|--------------------------|
B|--3--3--3--3--3--3--3--3--|--------------------------|
G|--0--0--0--0--0--0--0--0--|--6--6--6--6--6--6--6--6--|
D|--------------------------|--7--7--7--7--7--7--7--7--|
A|--2--2--2--2--2--2--2--2--|--4--4--4--4--4--4--4--4--|
E|--------------------------|--------------------------|
  I need You                 more than oxygen


    E  E  E  E  E  E  E  E     E  E  E  E  Q    Q     
E|--------------------------|------------------------|
B|--------------------------|------------------------|
G|--4--4--4--4--4--2-----6--|-----6-----7--7----6----|
D|--5--5--5--5--5--4-----7--|-----7-----9--9----7----|
A|--------------------------|------------------------|
E|--------------------------|------------------------|
                                More than oxygen

                                                 
    E  E  E  E  E  E  E  E     E  E  E  E  Q    Q     
E|--------------------------|------------------------|
B|--------------------------|------------------------|
G|--4--4--4--4--4--2-----6--|-----6-----7--7----6----|
D|--5--5--5--5--5--4-----7--|-----7-----9--9----7----|
A|--------------------------|------------------------|
E|--------------------------|------------------------|
                                More than oxygen


    E  E  E  E  E  E  E  E     E  E  E  E  Q    Q     
E|--------------------------|------------------------|
B|--------------------------|------------------------|
G|--4--4--4--4--4--2-----6--|-----6-----7--7----6----|
D|--5--5--5--5--5--4-----7--|-----7-----9--9----7----|
A|--------------------------|------------------------|
E|--------------------------|------------------------|
                                More than oxygen

                                                 
    E  E  E  E  E  E  E  E     E  E  E  E  Q    Q     
E|--------------------------|------------------------|
B|--------------------------|------------------------|
G|--4--4--4--4--4--2-----6--|-----6-----7--7----6----|
D|--5--5--5--5--5--4-----7--|-----7-----9--9----7----|
A|--------------------------|------------------------|
E|--------------------------|------------------------|


Duration Legend
---------------
W - whole
H - half
Q - quarter
E - 8th
S - 16th


Tablature Legend
----------------
h - hammer on
p - pull off
b - bend
/ -  slide into from below or out of upwards
~ - vibrato
Suggest correction
Give kudos to tab author, rate the tab!
1 2 3 4 5
comments
print report bad tab
guest
You may want to rate the tab now too:
select rating
Wanna post a correction for this tab? Suggest correction