Oops, an error
Loading. Please wait.

There Is Power solo tab

version 1
version 1

Solo

Interactive

373 views 30 this week
no commentswrite comment
1 2 3 4 5
2 more votes to show rating
add to favorites
×
Save as Personal and add changes to this tab that will be seen only by you. Learn more ›
×
You can save this tab as Personal to edit and correct it or add notes. All changes will be seen only by you. Learn more »
launch autoscroll
font size
0
reset
how to read this tab
guitar tuner
edit
Autoscroll
slow
fast
+/-
esc
set tempo
stop
Author
Difficulty
    3   4        1    2     3     4    1    2    3          4
e|----7-----|-----------17--15---12-|-----------12/14\12----9/10\9---|
B|------8\--|---/12--15-------------|--------------------------------|
G|----------|-----------------------|------------9/11\9-----6/7\6----|
D|----------|-----------------------|--------------------------------|
A|----------|-----------------------|--------------------------------|
E|----------|-----------------------|--------------------------------|
    
    1    2     3    4     1         2           3                 4
e|---------17--15--12--|--------21pbrb--17-----17----------------------|
B|--12--15-------------|------------------17h19---17-------------------|
G|---------------------|----------------------------19p18--------------|
D|---------------------|-----------------------------------19----------|
A|---------------------|-------------------------------------19p17\16--|
E|---------------------|-----------------------------------------------|

Notes in the 2nd full measure are octaves (and are played at the same time), in case they don't look lined up.
Numbers above the tab are measure beats, which should be fairly accurate.
Also, a pbrb, for those who don't know, would be a pre-bend release bend. In other words,
pick the note while it is bent, then release the bend and bend it again.

************************************

| h   Hammer-on
| p   Pull-off
| b   Bend
| pbr Pre-bend release
| /   Slide up
| \   Slide down

************************************

            
            
Suggest correction
Creating personal tab
Creating personal tab
You can edit any tab online and save it as your Personal.

You can edit, replace or remove any tab part or add personal notes – all changes will be seen only by you.

Personal tabs can be accessed anytime from any device, even offline.
Learn more »
Give kudos to tab author, rate the tab!
1 2 3 4 5
comments
print report bad tab
guest
You may want to rate the tab now too:
select rating
Wanna post a correction for this tab? Suggest correction