Oops, an error
Loading. Please wait.

Today Is The Day Tab

version 1
version 1

Solo

Whole song

Interactive

60,845 views 27 this week
1 commentread comment
1 2 3 4 5
x 9
add to favorites
launch autoscroll
font size
0
reset
how to read this tab
guitar tuner
Autoscroll
slow
fast
+/-
esc
set tempo
stop
Help us to improve Ultimate-Guitar.com Take our survey!
×
Author
----------------------------------------------------------------------------
                         TODAY IS THE DAY - Lincoln Brewster
----------------------------------------------------------------------------
Tabbed by: NICK
Email: nickman02@charter.net
Tuning: Standard (e B G D A E)


[Solo]

e|-------------------------------------------------------------------------|
B|-------------------------------------------------------------------------|
G|------------------------------------9-11--7-9--6-7-----------------------|
D|-4b-4-2~--7-5-4~--9-7-5~--12-11-9~-----------------9~--------------------|
A|-------------------------------------------------------------------------|
E|-------------------------------------------------------------------------|

e|-12-14----12-------------------------------------------------------------|
B|-------15----14-15--12--14-----------------------------------------------|
G|---------------------------14~-------------------------------------------|
D|-------------------------------------------------------------------------|
A|-------------------------------------------------------------------------|
E|-------------------------------------------------------------------------|

e|12-17-12----------12-17-12----------12-17-12-17-12----------12-17-12-----|
B|--------15-14-15----------15-14-15----------------15-14-15----------15-14|
G|-------------------------------------------------------------------------|
D|-------------------------------------------------------------------------|
A|-------------------------------------------------------------------------|
E|-------------------------------------------------------------------------|

e|-------------------------------------------------------------------------|
B|-15\---------------------------------------------------------------------|
G|-------------------------------------------------------------------------|
D|-----12-11-12-11---------------------------------------------------------|
A|-----------------14~-----------------------------------------------------|
E|-------------------------------------------------------------------------|

e|-------------------------------------------------------------------------|
B|-------------------------------------------------------------------------|
G|----------19----19----18br-16~-------------------------------------------|
D|----19-------------------------------------------------------------------|
A|-------17----17----17----------------------------------------------------|
E|-15----------------------------------------------------------------------|

e|--------------------------------------------17br~~~----------------------|
B|----------------------12----14----15-----17------------------------------|
G|-14h16p14p12----12-------------------------------------------------------|
D|-------------12----12----12----12-----12---------------------------------|
A|-------------------------------------------------------------------------|
E|-------------------------------------------------------------------------|

e|-14br--------------------------------------------------------------------|
B|------17-17br-15----17-15---17b-17b~~------------------------------------|
G|-----------------16------------------------------------------------------|
D|-------------------------------------------------------------------------|
A|-------------------------------------------------------------------------|
E|-------------------------------------------------------------------------|



************************************

| b    Bend
| ~    Vibrato
| \    Slide down
| br   Bend release
| h    Hammer-on
| p    Pull-off
| (12) ghost note

************************************
Suggest correction
comments
print report bad tab
1 comment total.
0 reply
Xavan 10 May 17, 2012 05:14 PM

Spot on! This is such a fun song to play, and this solo is super melodic! Thanks a bunch!

guest
You may want to rate the tab now too:
select rating
Wanna post a correction for this tab? Suggest correction