Oops, an error
Loading. Please wait.

Today Is The Day tab

version 2
version 2

Whole song

Interactive

55 views 3 this week
no commentswrite comment
1 2 3 4 5
3 more votes to show rating
add to favorites
×
Save as Personal and add changes to this tab that will be seen only by you. Learn more ›
×
You can save this tab as Personal to edit and correct it or add notes. All changes will be seen only by you. Learn more »
launch autoscroll
font size
0
reset
how to read this tab
guitar tuner
edit
Autoscroll
slow
fast
+/-
esc
set tempo
stop
Chords will be above the tab (chords above the tab are not necesarily the same as the tab fingerings, the
chords are just there to get a sense of where in the song you are). Don't be scared off by the large quantity
of numbers in the tab; most of them are 8th note repetitions. Just watch for some of the changes within them.
Listen to the song to get the overall feel.

[Intro] 
(Tab starts when the playing starts, not with the oddities at the beginning)
   D           Bm            A           G            D           Bm           A           G
e|-------------------------|------------------------|------------------------|-------------------------|
B|-10-10-10-10-10-10-10-10-|-10-10-10-10-10-8--8--7-|-7--7--7--7--7--7--7--7-|-7--7--7--7--7--8--8--10-|
G|-7--7--7--7--7--7--7--7--|-7--7--7--7--7--7--7--7-|-7--7--7--7--7--7--7--7-|-7--7--7--7--7--7--7--7--| (x2)
D|-0--0--0--0--0--0--0--0--|-0--0--0--0--0--0--0--0-|-0--0--0--0--0--0--0--0-|-0--0--0--0--0--0--0--0--|
A|-------------------------|------------------------|------------------------|-------------------------|
E|-------------------------|------------------------|------------------------|-------------------------|

[Verse 1]
  D         Bm      A        G        D        Bm       A        G
e|-----------------|-----------------|-----------------|-----------------|
B|-----------------|-----------------|-----------------|---------8-7-----|
G|-----------------|-----------------|---------6-6-6-7-|-----7-------7---|
D|-0-0-0-0-0-0-0-0-|-0-0-0-0-0-0-0-0-|-0-0-0-0---------|-0-0---0-------0-|
A|-----------------|-----------------|-----------------|-----------------|
E|-----------------|-----------------|-----------------|-----------------|
  PM                PM                PM                PM

  D        Bm       A        G        Em                 G
e|-----------------|-----------------|------------------|-----------------|
B|-----------------|-----------------|------------------|-----------------|
G|-----------------|-----------------|-9p7-9p7-9/11p9\7-|---7-7-7-7-7-7-7-|
D|-0-0-0-0-0-0-0-0-|-0-0-0-0-0-0-0-0-|------------------|---0-0-0-0-0-0-0-|
A|-----------------|-----------------|------------------|-----------------|
E|-----------------|-----------------|------------------|-----------------|
  PM                PM

  D        Bm       A        G        D       Bm       A       G
e|-----------------|-----------------|----------------|----------------|
B|-----7---5-7-5-7-|-----7-----7---7-|----7---5-7-5-7-|-----7--5-7-8-7-|
G|-----7---6-7-6-7-|-----7-----7---7-|----7---6-7-6-7-|-----7--6-7-7-7-|
D|-0-0---0---------|-0-0---0-0---0---|-0-0--0---------|-0-0---0--------|
A|-----------------|-----------------|----------------|----------------|
E|-----------------|-----------------|----------------|----------------|
(Palm Mute the open D, play the others normal)

  D        Bm       A        G        Em                  G
e|-----------------|-----------------|------------------|-----------------|
B|-----7---5-7-5-7-|-----7-----7---7-|------------------|-----------------|
G|-----7---6-7-6-7-|-----7-----7---7-|-9p7 9p7-9/11p9\7-|---7-7-7-7-7-7-7-|
D|-0-0---0---------|-0-0---0-0---0---|------------------|---0-0-0-0-0-0-0-|
A|-----------------|-----------------|------------------|-----------------|
E|-----------------|-----------------|------------------|-----------------|
(Palm Mute the open D, play the others normal)      (don't Palm Mute)

[Chorus]
   D                         D/C#                      Bm                        G
e|-10-10-10-10-10-10-10-10-|-10-10-10-10-10-10-10-10-|-12-12-12-12-12-12-12-12-|-8--8--8--8--8--8--8--8-|
B|-10-10-10-10-10-10-10-10-|-10-10-10-10-10-10-10-10-|-11-11-11-11-11-11-11-11-|-7--7--7--7--7--7--7--7-|
G|-7--7--7--7--7--7--7--7--|-6--6--6--6--6--6--6--6--|-9--9--9--9--9--9--9--9--|-5--5--5--5--5--5--5--5-| (x2)
D|-0--0--0--0--0--0--0--0--|-------------------------|-------------------------|------------------------|
A|-------------------------|-------------------------|-------------------------|------------------------|
E|-------------------------|-------------------------|-------------------------|------------------------|

  Em            D/F#          G (Chord below is a G5)   Asus4     A
e|-------0-----|-------0-----|--3--3--3--3--3--3--3--3-|------------------------|
B|---3-----3---|---3-----3---|--3--3--3--3--3--3--3--3-|-3--3--3--2--2--2--2--2-|
G|-----2-----2-|-----2-----2-|--0--0--0--0--0--0--0--0-|-2--2--2--2--2--2--2--2-|
D|-2-----------|-------------|--0--0--0--0--0--0--0--0-|-2--2--2--2--2--2--2--2-|
A|-------------|-------------|-------------------------|-0--0--0--0--0--0--0--0-|
E|-------------|-2-----------|--3--3--3--3--3--3--3--3-|------------------------|
(Below part is the chorus outro)

   D           Bm            A           G            D           Bm           A           G
e|-------------------------|------------------------|------------------------|-------------------------|
B|-10-10-10-10-10-10-10-10-|-10-10-10-10-10-8--8--7-|-7--7--7--7--7--7--7--7-|-7--7--7--7--7--8--8--10-|
G|-7--7--7--7--7--7--7--7--|-7--7--7--7--7--7--7--7-|-7--7--7--7--7--7--7--7-|-7--7--7--7--7--7--7--7--|
D|-0--0--0--0--0--0--0--0--|-0--0--0--0--0--0--0--0-|-0--0--0--0--0--0--0--0-|-0--0--0--0--0--0--0--0--|
A|-------------------------|------------------------|------------------------|-------------------------|
E|-------------------------|------------------------|------------------------|-------------------------|

[Verse 2]
  D       Bm        A         G       D        Bm       A         G
e|-----------------|-----------------|-----------------|-----------------|
B|-----------------|-----------------|-----------------|-----------------|
G|-----7-----7---7-|-----7-----7---7-|-----7---6-6-6-7-|-----7-----7---7-|
D|-0-0---0-0---0---|-0-0---0-0---0---|-0-0---0---------|-0-0---0-0---0---|
A|-----------------|-----------------|-----------------|-----------------|
E|-----------------|-----------------|-----------------|-----------------|
  (Palm Mute the open D, play the others normal)

  D       Bm        A        G        Em                 G
e|-----------------|-----------------|------------------|-----------------|
B|-----------------|-----------------|------------------|-----------------|
G|-----7---6-6-6-7-|-----7-----7---7-|-9p7-9p7-9/11p9\7-|---7-7-7-7-7-7-7-|
D|-0-0---0---------|-0-0---0-0---0---|------------------|---0-0-0-0-0-0-0-|
A|-----------------|-----------------|------------------|-----------------|
E|-----------------|-----------------|------------------|-----------------|
  (Palm Mute the open D, play the others normal)    (don't Palm Mute)

  D        Bm       A        G        D       Bm       A       G
e|-----------------|-----------------|----------------|----------------|
B|-----7---5-7-5-7-|-----7-----7---7-|----7---5-7-5-7-|-----7--5-7-8-7-|
G|-----7---6-7-6-7-|-----7-----7---7-|----7---6-7-6-7-|-----7--6-7-7-7-|
D|-0-0---0---------|-0-0---0-0---0---|-0-0--0---------|-0-0---0--------|
A|-----------------|-----------------|----------------|----------------|
E|-----------------|-----------------|----------------|----------------|
(Palm Mute the open D, play the others normal)

  D        Bm       A        G        Em                  G
e|-----------------|-----------------|------------------|-----------------|
B|-----7---5-7-5-7-|-----7-----7---7-|------------------|-----------------|
G|-----7---6-7-6-7-|-----7-----7---7-|-9p7 9p7-9/11p9\7-|---7-7-7-7-7-7-7-|
D|-0-0---0---------|-0-0---0-0---0---|------------------|---0-0-0-0-0-0-0-|
A|-----------------|-----------------|------------------|-----------------|
E|-----------------|-----------------|------------------|-----------------|
(Palm Mute the open D, play the others normal)      (don't Palm Mute)

[Chorus]
   D                         D/C#                      Bm                        G
e|-10-10-10-10-10-10-10-10-|-10-10-10-10-10-10-10-10-|-12-12-12-12-12-12-12-12-|-8--8--8--8--8--8--8--8-|
B|-10-10-10-10-10-10-10-10-|-10-10-10-10-10-10-10-10-|-11-11-11-11-11-11-11-11-|-7--7--7--7--7--7--7--7-|
G|-7--7--7--7--7--7--7--7--|-6--6--6--6--6--6--6--6--|-9--9--9--9--9--9--9--9--|-5--5--5--5--5--5--5--5-| (x2)
D|-0--0--0--0--0--0--0--0--|-------------------------|-------------------------|------------------------|
A|-------------------------|-------------------------|-------------------------|------------------------|
E|-------------------------|-------------------------|-------------------------|------------------------|

  Em            D/F#          G (Chord below is a G5)   Asus4     A
e|-------0-----|-------0-----|--3--3--3--3--3--3--3--3-|------------------------|
B|---3-----3---|---3-----3---|--3--3--3--3--3--3--3--3-|-3--3--3--2--2--2--2--2-|
G|-----2-----2-|-----2-----2-|--0--0--0--0--0--0--0--0-|-2--2--2--2--2--2--2--2-|
D|-2-----------|-------------|--0--0--0--0--0--0--0--0-|-2--2--2--2--2--2--2--2-|
A|-------------|-------------|-------------------------|-0--0--0--0--0--0--0--0-|
E|-------------|-2-----------|--3--3--3--3--3--3--3--3-|------------------------|
(Below part is the chorus outro)

   D           Bm            A           G            D           Bm           A           G
e|-------------------------|------------------------|------------------------|-------------------------|
B|-10-10-10-10-10-10-10-10-|-10-10-10-10-10-8--8--7-|-7--7--7--7--7--7--7--7-|-7--7--7--7--7--8--8--10-|
G|-7--7--7--7--7--7--7--7--|-7--7--7--7--7--7--7--7-|-7--7--7--7--7--7--7--7-|-7--7--7--7--7--7--7--7--|
D|-0--0--0--0--0--0--0--0--|-0--0--0--0--0--0--0--0-|-0--0--0--0--0--0--0--0-|-0--0--0--0--0--0--0--0--|
A|-------------------------|------------------------|------------------------|-------------------------|
E|-------------------------|------------------------|------------------------|-------------------------|

[Solo]
(Guitar 1)(Main) A                  D/F#
e|---------------|----------------|-------------------|-12-14--12-----------------12|
B|---------------|----------------|-------------------|------15---14-15-12--14------|
G|---------------|----------------|-9--11-7--9-6--7-5-|-----------------------14----|
D|-4b-4-2--7-5-4-|-9-7-5--12-11-9-|-------------------|-----------------------------|
A|---------------|----------------|-------------------|-----------------------------|
E|---------------|----------------|-------------------|-----------------------------|

(Guitar 2) (Background) A                                  D/F#
e|----------------------------|-------------------------|-----------------|-----------------|
B|-10-10-10-10-10-10-10-10-10-|-10-10-10-10-10-10-10-10-|-7-7-7-7-7-7-7-7-|-7-7-7-7-7-7-7-7-|
G|-9--9--9--9--9--9--9--9--9--|-9--9--9--9--9--9--9--9--|-7-7-7-7-7-7-7-7-|-7-7-7-7-7-7-7-7-|
D|----------------------------|-------------------------|-----------------|-----------------|
A|----------------------------|-------------------------|-----------------|-----------------|
E|----------------------------|-------------------------|-----------------|-----------------|

(Guitar 1)  Bm
e|17-12---------12-17-12--------12-17-12-17-12|--------12-17-12------------------------|
B|------15-14-15--------15-14-15--------------|15-14-15--------15-14-15\---------------|
G|--------------------------------------------|----------------------------------------|
D|--------------------------------------------|--------------------------12-11-12-11-9-|
A|--------------------------------------------|----------------------------------------|
E|--------------------------------------------|----------------------------------------|

(Guitar 2)  Bm
e|-------------------------|-------------------------|
B|-10-10-10-10-10-10-10-10-|-10-10-10-10-10-10-10-10-|
G|-9--9--9--9--9--9--9--9--|-9--9--9--9--9--9--9--9--|
D|-------------------------|-------------------------|
A|-------------------------|-------------------------|
E|-------------------------|-------------------------|

(Guitar 1) G
e|--------------------------------|----------------------------------------------17br|
B|--------------------------------|----------------------12----14----15----17--------|
G|----------19----19----18br-16---|-14h16p14p12----12--------------------------------|
D|----19-------17----17-----------|-------------12----12----12----12----12----12-----|
A|-------17-----------------------|--------------------------------------------------|
E|-15-----------------------------|--------------------------------------------------|

(Guitar 2)  G
e|-----------------|-----------------|
B|-8-8-8-8-8-8-8-8-|-8-8-8-8-8-8-8-8-|
G|-7-7-7-7-7-7-7-7-|-7-7-7-7-7-7-7-7-|
D|-----------------|-----------------|
A|-----------------|-----------------|
E|-----------------|-----------------|

(Guitar 1)  D
e|17------|----15p14----|---------------------------|--------|
B|--------|----------17-|-17p15----17p15--19\18/19\-|--------|
G|--------|-------------|-------16------------------|--------|
D|--------|-------------|---------------------------|--------|
A|--------|-------------|---------------------------|--------|
E|--------|-------------|---------------------------|--------|

(Guitar 2)  D
e|----------|--------|--------|--------|
B|-10-------|--------|--------|--------|
G|-7--------|--------|--------|--------| (let the D fade out)
D|-0--------|--------|--------|--------|
A|----------|--------|--------|--------|
E|----------|--------|--------|--------|

[Bridge]
  D
e|-----------------|-------------------|-----------------|-----------------|
B|-----------------|---------------10\-|-10\-------------|---10------------|
G|-----------------|---------------7-\-|-7-\-------------|---7-------------|
D|-0-0-0-0-0-0-0-0-|-0-0-0-0-0-0-0-0---|-0---0-0-0-0-0-0-|-0-0-----0-0-0-0-|  (x2)
A|-----------------|-------------------|-----------------|-----------------|
E|-----------------|-------------------|-----------------|-----------------|
  (Palm Mute Open D)

  D
e|----------------------|-----------------|
B|-10-10-10-10-10-7-7-8-|-8-8-8-8-8-8-8-8-|
G|-7--7--7--7--7--7-7-7-|-7-7-7-7-7-7-7-7-|
D|----------------------|-----------------|  (x3)
A|----------------------|-----------------|
E|----------------------|-----------------|
  PM                     PM

  Em       D/F#      G                D
e|-----------------|-------------------|
B|-----------------|---------------10--|
G|-----------------|---------------7---|
D|-2-2-2-2-4-4-4-4-|-5-5-5---------0---|
A|-2-2-2-2-4-4-4-4-|-5-5-5-------------|
E|-0-0-0-0-2-2-2-2-|-3-3-3-------------|

[Chorus]
   D                         D/C#                      Bm                        G
e|-10-10-10-10-10-10-10-10-|-10-10-10-10-10-10-10-10-|-12-12-12-12-12-12-12-12-|-8--8--8--8--8--8--8--8-|
B|-10-10-10-10-10-10-10-10-|-10-10-10-10-10-10-10-10-|-11-11-11-11-11-11-11-11-|-7--7--7--7--7--7--7--7-|
G|-7--7--7--7--7--7--7--7--|-6--6--6--6--6--6--6--6--|-9--9--9--9--9--9--9--9--|-5--5--5--5--5--5--5--5-| (x2)
D|-0--0--0--0--0--0--0--0--|-------------------------|-------------------------|------------------------|
A|-------------------------|-------------------------|-------------------------|------------------------|
E|-------------------------|-------------------------|-------------------------|------------------------|

  Em            D/F#          G (Chord below is a G5)   Asus4     A
e|-------0-----|-------0-----|--3--3--3--3--3--3--3--3-|------------------------|
B|---3-----3---|---3-----3---|--3--3--3--3--3--3--3--3-|-3--3--3--2--2--2--2--2-|
G|-----2-----2-|-----2-----2-|--0--0--0--0--0--0--0--0-|-2--2--2--2--2--2--2--2-| (x2)
D|-2-----------|-------------|--0--0--0--0--0--0--0--0-|-2--2--2--2--2--2--2--2-|
A|-------------|-------------|-------------------------|-0--0--0--0--0--0--0--0-|
E|-------------|-2-----------|--3--3--3--3--3--3--3--3-|------------------------|

[Outro]
   D           Bm            A           G            D           Bm           A           G
e|-------------------------|------------------------|------------------------|-------------------------|
B|-10-10-10-10-10-10-10-10-|-10-10-10-10-10-8--8--7-|-7--7--7--7--7--7--7--7-|-7--7--7--7--7--8--8--10-|
G|-7--7--7--7--7--7--7--7--|-7--7--7--7--7--7--7--7-|-7--7--7--7--7--7--7--7-|-7--7--7--7--7--7--7--7--| (x2)
D|-0--0--0--0--0--0--0--0--|-0--0--0--0--0--0--0--0-|-0--0--0--0--0--0--0--0-|-0--0--0--0--0--0--0--0--|
A|-------------------------|------------------------|------------------------|-------------------------|
E|-------------------------|------------------------|------------------------|-------------------------|
                                                                         (2nd time let the last chord sustain)


************************************

| PM  Palm mute
| p   Pull-off
| /   Slide up
| \   Slide down
| b   Bend
| br  Bend release
| h   Hammer-on
   

************************************

            
            
Suggest correction
Creating personal tab
Creating personal tab
You can edit any tab online and save it as your Personal.

You can edit, replace or remove any tab part or add personal notes – all changes will be seen only by you.

Personal tabs can be accessed anytime from any device, even offline.
Learn more »
Give kudos to tab author, rate the tab!
1 2 3 4 5
comments
print report bad tab
guest
You may want to rate the tab now too:
select rating
Wanna post a correction for this tab? Suggest correction