Oops, an error
Loading. Please wait.

Belarmino Vs Bass Tab

562 views 1 this week
no commentswrite comment
1 2 3 4 5
3 more votes to show rating
add to favorites
launch autoscroll
font size
0
reset
guitar tuner
Autoscroll
slow
fast
+/-
esc
set tempo
stop
Help us to improve Ultimate-Guitar.com Take our survey!
×
Author
Difficulty
novice
INTRO
    x8
G----------|
D----------|
A----------|
E--12\-7-7-|

VERSO
    x4
G-----------------------------------------------------------------------|
D-----------------------------------------------------------------------|
A--7-7-7-7-7-7-7-7-5-5-5-5-5-5-5-5-10-10-10-10-10-10-10-9-9-9-9-9-9-9-9-|
E-----------------------------------------------------------------------|

INTRO
    x8
G----------|
D----------|
A----------|
E--12\-7-7-|

BRIDGE                         X2
G----------------------------------|--------------------------------------------------|
D----------------------------------|--------------------------------------------------|
A--7-7-7-7-7-7-7-7-5-5-5-5-5-5-5-5-|-10-10-10-10-10-10-10-10-10-10-10-10-10-10-10-10--|
E----------------------------------|--------------------------------------------------|

                         X2
G----------------------------------|-------------------------------------------------------------|
D----------------------------------|-------------------------------------------------------------|
A--7-7-7-7-7-7-7-7-5-5-5-5-5-5-5-5-|-10-10-10-10-10-10-10-10-10-10-10-10-10-10-9-9-9-9-9-9-9-9-9-|
E----------------------------------|-------------------------------------------------------------|

G----------------------------------|-------------------------------------------------------------|
D----------------------------------|-------------------------------------------------------------|
A--7-7-7-7-7-7-7-7-7-7-7-7-7-7-7-7-|-10-10-10-10-10-10-10-10-10-10-10-10-10-10-(9-9-9-9-9-9)???--|
E----------------------------------|-------------------------------------------------------------|

INTRO
    x8
G----------|
D----------|
A----------|
E--12\-7-7-|

NÃO TENHO BEM A CERTEZA SE ESTÁ TOTALMENTE CORRECTA POIS TIREI DE OUVIDO E NÃO TENHO
O BAIXO AQUI DE MOMENTO PARA CONFIRMAR...MAS NÃO DEVE FUGIR MUITO ÀS NOTAS QUE A CLAUDIA TOCA!!!
Suggest correction
Give kudos to tab author, rate the tab!
1 2 3 4 5
comments
print report bad tab
guest
You may want to rate the tab now too:
select rating
Wanna post a correction for this tab? Suggest correction