Oops, an error
Loading. Please wait.

Da-Me A Tua Melhor Faca Ao Vivo Tab

652 views 1 this week
no commentswrite comment
1 2 3 4 5
3 more votes to show rating
add to favorites
launch autoscroll
font size
0
reset
how to read this tab
guitar tuner
Autoscroll
slow
fast
+/-
esc
set tempo
stop
Help us to improve Ultimate-Guitar.com Take our survey!
×
Difficulty
intermediate
PT : Boas vou tentar fazer aqui uma tablatura das duas guitarras de Linda Martini da 
musica Da-me a tua Melhor Faca, pode conter alguns erros mas penso que não são muitos pois 
foi baseado não só de ouvido mas também em pequenas analises durante os concertos.
Esta ainda no entanto incompleta e não sou nenhum especialista por isso quaisquer termos 
mal usados é favor avisar para corrigir.
É uma tablatura de como eles tocam ao vivo mas no entanto os tempos apresentados são 
baseados na versão de estudo

Guitarra 1 (André - dedilhado)
Part 1 0:00 - 1:11 (ritmo deixo ao critério do vosso ouvido)
e|-7-x-7-x-77-x-7-887-x-7-x-7-3336666----------|
B|-7-x-7-x-77-x-7-777-x-7-x-7-3336666----------|
G|---------------------------------------------|
D|---------------------------------------------|
A|---------------------------------------------|
E|-7-x-7-x-77-x-7-777-x-7-x-7-3336666----------|

Guitarra 2 (Geraldes)
Delay+fuzz (uns efeitos quaisquer marados)
Aumentando o ritmo até 0:44
Parte 1 0:44 - 1:11
e|-7777-77-6666-66-7777-77-12(3x)10(3x)-888888-88-7777-77-8888-88-7777-7^8|
B|------------------------------------------------------------------------|
G|------------------------------------------------------------------------|
D|------------------------------------------------------------------------|
A|------------------------------------------------------------------------|
E|------------------------------------------------------------------------|

e|-7777-77-6666-66-7777-77-12(3x)10(3x)-888888-88-7777-77-3333333-6666666-|
B|------------------------------------------------------------------------|
G|------------------------------------------------------------------------|
D|------------------------------------------------------------------------|
A|------------------------------------------------------------------------|
E|------------------------------------------------------------------------|

Ambas as guitarras
1:11-1:24
e|------------------------------------------------------------------------|
B|------------------------------------------------------------------------|
G|------------------------------------------------------------------------|
D|--------------9-0-------------------------------------------------------|
A|-----10-10-10-----------------------------------------------------------|
E|-7-7--------------------------------------------------------------------|

1:24-1:40
1 das guitarras faz efeitos, penso que seja o Geraldes, mas basicamente eles ao vivo 
nunca fazem a mesma coisa, sugere fazer umas oitavas e brincar com a guitarra e scratch e 
coisas assim.

1:40-2:07
Ambas as guitarras
e|------------------------------------------------------------------------|
B|------------------------------------------------------------------------|
G|------------------------------------------------------------------------|
D|-9------8-----5-5-5-8-8-8-----------------------------------------------|
A|-9------8-----5-5-5-8-8-8-----------------------------------------------|
E|-7(14x)-6(6x)-3-3-3-6-6-6-----------------------------------------------|

2:07-2:35
Volta a primeira parte

2:35-3:02

Guitarra 1
e|------------------------------------------------------------------------|
B|--7---7-----------------------------------------------------------------|
G|----7---7-7-------------------------------------------------------------|
D|------------------------------------------------------------------------|
A|------------------------------------------------------------------------|
E|------------------------------------------------------------------------|

Guitarra 2
delay, não é consiste ao ponto de conseguir fazer uma tablatura desta parte

3:03-4:50
Esta é a parte que não sei completa, tenho dificuldades em prestar atenção a guitarra 
pois esta ligeiramente diferente da versão estúdio
É algo como isto mas só sei mesmo o inicio, por isso alguma alma carinhosa que saiba 
esta parte é sempre bem vindo

Guitarra 1
e|------------------------------------------------------------------------|
B|------------------------------------------------------------------------|
G|--7-7-7-7---------------------------------------------------------------|
D|-----------8-8-8-7-7-7-7------------------------------------------------|
A|------------------------------------------------------------------------|
E|------------------------------------------------------------------------|

Guitarra 2
Mesma historia, delay (se calhar um pouco de reverb?) e a brincar com a guitarra

4:50-5:52
Ambas as guitarras

e|----------------------------------------------------------------------|
B|----------------------------------------------------------------------|
G|-----------------------------------8(6x)------------------------------|
D|-8(6x)/-15(6x)-8(6x)/-15(6x)-5(6x)-8(6x)------------------------------|
A|-8(6x)/-15(6x)-8(6x)/-15(6x)-5(6x)-7----------------------------------|
E|-7(6x)/-13(6x)-7(6x)/-13(6x)-3(6x)------------------------------------|

5:52 até ao fim
Guitarra 1
e|-------------------------------------------------|
B|-------------------------------------------------|
G|-------------------------------------------------|
D|-------12-14-15-14-12----------12-14-12----------|
A|-12-14----------------14-12-14----------14-12-14-|
E|-------------------------------------------------|

Guitarra 2
same old same old
efeitos e mais efeitos e brincar até um certo ponto que o Geraldes toca o mesmo som só 
que oitavas acima (deve ser esse o termo que se usa)
Suggest correction
Give kudos to tab author, rate the tab!
1 2 3 4 5
comments
print report bad tab
guest
You may want to rate the tab now too:
select rating
Wanna post a correction for this tab? Suggest correction