Oops, an error
Loading. Please wait.

Da-Me A Tua Melhor Faca Tab

2,079 views 1 this week
no commentswrite comment
1 2 3 4 5
please rate
add to favorites
launch autoscroll
font size
0
reset
how to read this tab
guitar tuner
Tab Pro tools
  • play this tab
  • loop segment
  • change instrument
  • show fretboard
  • metronome
×
Best way to learn
"Da-me A Tua Melhor Faca"
Autoscroll
slow
fast
+/-
esc
set tempo
stop
Contributor
LINDA MARTINI - DÁ-ME A TUA MELHOR FACA (OLHOS DE MONGOL)

PART 1 [0:00-2:35]:
INTRO:
e|---------------------------------------------------------------|
B|---------------------------------------------------------------|
G|-4-x-x-4-x-x-4-x-4-x-x-4-x-x-5-5\4-x-x-4-x-x-4-x-3-x-x-3-x-x-3-|
D|-4-x-x-4-x-x-4-x-4-x-x-4-x-x-5-5\4-x-x-4-x-x-4-x-3-x-x-3-x-x-3-|
A|-2-x-x-2-x-x-2-x-2-x-x-2-x-x-3-3\2-x-x-2-x-x-2-x-1-x-x-1-x-x-1-|
E|---------------------------------------------------------------|6x

VERSES:
e|----------------------------------------------|
B|----------------------17-17-17-15-15-15-13-13-|
G|-16(8x)-17(8x)-16(8x)-------------------------|
D|----------------------------------------------|
A|----------------------------------------------|
E|----------------------------------------------|

e|--------------------------------------|
B|-13(8x)-12(8x)-13(8x)-12(8x)-12/13/12-|
G|--------------------------------------|
D|--------------------------------------|
A|--------------------------------------|
E|--------------------------------------|

e|----------------------------------------------|
B|-12(8x)-13(8x)-12(8x)-17-17-17-15-15-15-13-13-|
G|----------------------------------------------|
D|----------------------------------------------|
A|----------------------------------------------|
E|----------------------------------------------|

e|-----------------------------|
B|-13(8x)-12(8x)---------------|
G|---------------12(8x)-14(8x)-|
D|---------------12(8x)-14(8x)-|
A|---------------10(8x)-12(8x)-|
E|-----------------------------|

PRE-CHORUS:
e|-------------------|
B|-------------------|
G|-4-4-4/12-12/15-15-|
D|-4-4-4-------------|
A|-2-2-2/10-10/13-13-|
E|-------------------|8x

e|------------------------------|
B|------------------------------|
G|-9-9-9-7-7-7-4--4-4-4-3-3-----|
D|-9-9-9-7-7-7-4--4-4-4-3-3-5-7-|
A|-7-7-7-5-5-5-2--2-2-2-1-1-5-7-|
E|--------------------------3-5-|

e|-----------------------------------------------------|
B|-----------------------------------------------------|
G|-----------------------------------------------------|
D|-8(8x)-9(8x)-10(8x)-11(8x)-12(8x)-13(8x)-14(8x)-15---|
A|-8(8x)-9(8x)-10(8x)-11(8x)-12(8x)-13(8x)-14(8x)-15---|
E|-6(8x)-4(8x)--8(8x)--9(8x)-10(8x)-11(8x)-12(8x)-13---|
(Scratch Guitar, Feedbacks & others)

CHORUS:
e|---------------------------|
B|---------------------------|
G|-4(16x)-3(8x)--------------|
D|-4(16x)-3(8x)-5-5-5/8--8-6-|
A|-2(16x)-1(8x)-5-5-5/8--8-6-|
E|--------------3-3-3/6--6-6-|4x

-Repeat Verses-


PART 2 [2:35 - 7:00]:
-Clean Chorus Cuitar

INTRO:
e|---------------|
B|---------------|
G|---------------|
D|---4-5-----2-4-|
A|-2-------2-----|
E|---------------|2x


VERSES:
e|-------------------------12-12-----------------------|
B|-15-15-14-14-12-12-14-14-------15-15-14-14-15-15--12-|
G|-----------------------------------------------------|
D|-----------------------------------------------------|
A|-----------------------------------------------------|
E|-----------------------------------------------------|4x


PRE-CHORUS:
(You will notice this part of the tab is played in a different
way from the original. But if you would like to sing along,
I think this way makes it easier if you want.)
e|-------------------------14-14-12-12-------------------|
B|-15-15-14-14-12-12-14-14-------------15-15-14-14-15-12-|
G|-------------------------------------------------------|
D|-------------------------------------------------------|
A|-------------------------------------------------------|
E|-------------------------------------------------------|4x
	Dá-me a tua melhor                    E amanhã
	 faca para cortarmos 			esquecer.
	      isto em dois...

-Distortion

CHORUS:
e|---------------------------------------|
B|---------------------------------------|
G|-4(8x)/10(8x)\4(8x)/10(8x)-------9(8x)-|
D|-4(8x)/10(8x)\4(8x)/10(8x)-5(8x)-9(8x)-|
A|-2(8x)/-8(8x)\2(8x)/-8(8x)-5(8x)-7(8x)-|
E|---------------------------3(8x)-------|6x

e|-------------------------------------------------|
B|-------------------------------------------------|
G|-------------------------------------------------|
D|-------12-14-15-14-12----------12-14-12----------|
A|-12-14----------------14-12-14----------14-12-14-|
E|-------------------------------------------------|18x

-Clean Chorus Guitar
e|------|
B|-14\12|
G|------|
D|------|
A|------|
E|------|8x


TAB by: MARK
www.mark.pt.la
comments
We did not receive enough feedback on this tab! Please rate:
print report bad tab
1 2 3 4 5
I want to post or [tab]
guest
You may want to rate the tab now too:
select rating
Please do not post tabs as comments. Select "correction" instead!