Oops, an error
Loading. Please wait.

Raposo Manhoso Bass Tab

290 views 1 this week
no commentswrite comment
1 2 3 4 5
please rate
add to favorites
launch autoscroll
font size
0
reset
guitar tuner
Autoscroll
slow
fast
+/-
esc
set tempo
stop
Help us to improve Ultimate-Guitar.com Take our survey!
×
Author
Difficulty
intermediate
VERSE            0:58
G|--------------|------------------------|
D|--5/7-5-4-7-7-|------------------------|
A|------------5-|-5-55-55-55-55-55-55-55-|
E|--------------|------------------------|

REPEAT
THEN...
1:50  X2
G|--------------|--------------------------------------------|
D|---------------------------------5LR-5LR-4LR-4LR-----------|
A|-5-5-5-5-5-5-5-5-5-5-5-5-5-5-5-5-3LR-3LR-2LR-2LR-----------|
E|--------------|--------------------------------------------|


2:34 X2
G|------------------------------------------|
D|-------5------------2---------------------|
A|-3-3-5-3LR--3-3-5-2-0LR-------------------|
E|------------------------------------------|

3:02
G|--------------------------------------------|
D|--------------------------------------------|
A|----5-7---5---------------------------------|
E|-8LR----8--5--------------------------------|

3:54
G|----------------------------------------------|
D|----------------------------------------------|
A|----5-7---5-----------------------------------|
E|-8LR----8--1LR--------------------------------|

THIS 2 LAST PARTS X2

END
5:02 X2
G|---------------------------------------------------------|
D|---------------------------------------------------------|
A|---------------------------------------------------------|
E|-8-8-8-8-8-8-8-8-8-8-8-8-5-5-5-5-5-5-5-5-5-5-5-5-5-5-5---|

G|------------------------------------------------|
D|------------------------------------------------|
A|-----7---------7--------------7-------7---------|
E|-0-0-00--0-0-0-0-0-0-0--0-0-0-0-0-0-0-0-5-8LR---|


THATS IT...ENJOY!!
Suggest correction
Give kudos to tab author, rate the tab!
1 2 3 4 5
comments
print report bad tab
guest
You may want to rate the tab now too:
select rating
Please do not post tabs as comments. Select "correction" instead!