Oops, an error
Loading. Please wait.

Chimacum Rain tab

version 1
version 1

Whole song

1,012 views 12 this week
no commentswrite comment
1 2 3 4 5
3 more votes to show rating
add to favorites
×
Save as Personal and add changes to this tab that will be seen only by you. Learn more ›
×
You can save this tab as Personal to edit and correct it or add notes. All changes will be seen only by you. Learn more »
launch autoscroll
font size
0
reset
how to read this tab
guitar tuner
edit
Autoscroll
slow
fast
+/-
esc
set tempo
stop
Author
Difficulty
Artist: Linda Perhacs
Song: Chimacum Rain
Album: Parallelograms (1970)

* I am happy to finally make my first contribution to UG. This is one of my favourite songs, *
* such a dreamy drifting guitar sound. It plays much easier than I thought. Any comments or  *
* feedback are appreciated. Enjoy!                                                           *


[INTRO]
E|--------0-----------------------------|
B|-----1-----0--1--0-----0--1--0-----0--|
G|--------------------0-----------0-----|   x2
D|--------------------------------------|
A|--3-----------------------------------|
E|--------------------------------------|

[VERSE]
          And it rains here ...
E|--------0-----------------------------|
B|-----1-----0--1--0-----0--1--0-----0--|
G|--------------------0-----------0-----|   x2
D|--------------------------------------|
A|--3-----------------------------------|
E|--------------------------------------|

       And the lichen covers rock ...
E|--------------------------------------|
B|-----------0-----0-----0-----0-----0--|
G|-----2--0-----2-----------2-----2-----|   x2
D|--------------------2-----------2-----|
A|--0-----------------------------------|
E|--------------------------------------|

[CHORUS]
Chimacum Rain ...
E|-----------3-----------------3--------|-----------3-----------------3--------|
B|--------1--------1--------1--------1--|--------1--------1--------1--------1--|
G|-----2--------2--------0--------0-----|-----2--------2--------0--------0-----|
D|--------------------2-----------------|--------------------2-----------2-----|
A|--0-----------------------------------|--0-----------------------------------|
E|--------------------------------------|--------------------------------------|

   Rain,      and the rain,         and the rain,            down ...
E|-----------0-----------------0--------|-----------0-----------------0--------|
B|--------0--------0--------0--------0--|--------0--------0--------0--------0--|
G|-----2--------2--------0--------0-----|-----2--------2--------0--------0-----|
D|--------------------3-----------3-----|--------------------------------------|
A|--------------------------------------|--3-----------3-----3-----------3-----|
E|--1-----------------------------------|--------------------------------------|

... around            you
E|--------------------------------------|--------------------------------------|
B|--------------------------------------|--------------------------------------|
G|-----------0-----0-----------0-----0--|-----------0-----0-----------0--2-----|
D|--------3-----3-----------3-----3-----|--------3-----3-----------3-----------|
A|-----3-----------------3--------------|-----3-----------------3--------------|
E|--1-----------1-----1-----------1-----|--1-----------1-----1-----------------|

[BRIDGE]

E|--------------------------------------|
B|-----3-----3-----3-----3-----3-----3--|
G|--------0-----------------0-----------|   x2
D|--------------4-----------------2-----|
A|--3-----------------3-----------------|
E|--------------------------------------|

   I'm        spacing out
E|--------------------------------------|
B|-----3-----3-----3-----3-----3-----3--|   x3
G|--------0-----------------0-----------|
D|--------------4-----------------2-----|
A|--3-----------------3-----------------|
E|--------------------------------------|

...between leaves
E|-----------0-----------------0--------|
B|--------1--------1--------1--------1--|   
G|-----2--------2--------2--------2-----|   x2
D|--------------------2-----------2-----|
A|--0-----------------------------------|
E|--------------------------------------|

  He belongs here                  (can't tell him)
E|-----------0-----------------0--------|-----------2-----------------2--------|
B|--------1--------1--------1--------1--|--------3--------3--------3--------3--|
G|-----2--------2--------2--------2-----|-----2--------2--------2--------2-----|   x2
D|--------------------2-----------2-----|--0-----------------0-----------0-----|
A|--0-----------------------------------|--------------------------------------|
E|--------------------------------------|--------------------------------------|

He belongs here
E|-----------0-----------------0--------|
B|--------1--------1--------1--------1--|   x2
G|-----2--------2--------2--------2-----|
D|--------------------2-----------2-----|
A|--0-----------------------------------|
E|--------------------------------------|



Lyrics:

[Verse]
And it rains here
Every day since I came
And the lichen covers rocks
And the green finds everything
[Chorus]
Chimacum rain
Rain and the rain and the rain
Down around you
Chimacum Rain

In the soak of leaves
And needle tufts and foam
In the grasses and the reeds
And the spilling over stones
Chimacum rain
Rain and the rain and the rain
Down around you
Chimacum Rain

[Bridge]
I'm spacing out
I'm seeing silences between leaves
I'm seeing down
I'm seeing silences that are here
He belongs here (can't tell him)
He belongs here (can't know him)
He belongs here

Chimacum Rain

It kinda gets inside you
The silences I mean
They kinda wrap around you
And loosen everything
Chimacum rain
Rain and the rain and the rain
Down around you
Chimacum Rain

            
            
Suggest correction
Creating personal tab
Creating personal tab
You can edit any tab online and save it as your Personal.

You can edit, replace or remove any tab part or add personal notes – all changes will be seen only by you.

Personal tabs can be accessed anytime from any device, even offline.
Learn more »
Give kudos to tab author, rate the tab!
1 2 3 4 5
comments
print report bad tab
guest
You may want to rate the tab now too:
select rating
Wanna post a correction for this tab? Suggest correction