Oops, an error
Loading. Please wait.

Back In The Usa Bass Tab

1,402 views 6 this week
no commentswrite comment
1 2 3 4 5
please rate
add to favorites
launch autoscroll
font size
0
reset
guitar tuner
Autoscroll
slow
fast
+/-
esc
set tempo
stop
Help us to improve Ultimate-Guitar.com Take our survey!
×
Author
#----------------------------------PLEASE NOTE---------------------------------#
#This file is the author's own work and represents their interpretation of the #
#song. You may only use this file for private study, scholarship, or research. #
#------------------------------------------------------------------------------#

BACK IN THE USA (Bassline)




Transcribed by Gary Ramsey

 

 

Gtr I (E A D G) - 'Staff'


  Q=170
 4/4
  Gtr I
  W          W          W          W
|----------|----------|----------|------|
|----------|----------|----------|------|
|----------|----------|----------|------|
|----------|----------|----------|------|


  Q  +S  E S E. S E. S   E. S E. S E. S E. S
|----------------------|-----------0--0------|
|----------------------|------2--2------2--0-|
|-3--(3)---3-3--3-2--3-|-3--3----------------|
|----------------------|---------------------|


  Q  E. S E. S E. S   Q  E. S Q  E. S
|-------------------|------------------|
|-------------------|------------------|
|-------------------|------------0--1--|
|-3--3--3-2--3-3--3-|-3--2--3-3--------|


  Q  E. S Q  E. S   Q  Q  E. S Q    Q  E. S E. S E. S   Q  Q  E. S Q
|-----------------|---------------|-------------------|---------------|
|-0-------0-------|-0----------0--|-------------------|------------0--|
|----2--2----2--2-|----2--0--2----|-------------------|----------2----|
|-----------------|---------------|-3--3--3-2--3-3--3-|-3--3--3-------|


  Q  Q  Q  Q    Q  E E Q  Q    Q  E. S E. S E. S   Q  E. S Q  E. S
|-0--0--0--0--|-0------------|-------------------|-----------------|
|-------------|----2---0-----|-------------------|-----------------|
|-------------|-----------2--|-------------------|------------0--2-|
|-------------|--------------|-3--3--3-2--3-3--3-|-3--3--3-3-------|


  Q  E. S E. S E. S   Q  Q  Q  E. S   Q  E. S Q  E. S   Q  E. S Q  E. S
|-------------------|---------------|-----------------|-----------------|
|-------------------|---------------|---------0-------|-----------------|
|-3--3--3-3--0----0-|-3--3--3--5--3-|----2--2----3--2-|---------------2-|
|--------------3----|---------------|-3---------------|-3--3--3-3--3----|


  Q  E. S Q  Q    Q  E. S Q  Q    Q  Q  Q  E. S   Q  Q  E. S Q
|---------------|---------------|---------------|-0-------------|
|-0--0----0--0--|-0----------0--|-------0--2--0-|----2--0-------|
|-------2-------|----2--2-0-----|----2----------|----------3-2--|
|---------------|---------------|-3-------------|---------------|


  Q  E. S Q  Q    E. S Q  Q  E. S   Q  Q  Q  E. S   Q  Q  Q  Q
|---------------|-----------------|---------------|-------------|
|---------------|-----------------|---------------|-------------|
|---------------|-2--3-3--3--3--2-|----2--3--2----|-------------|
|-3--3--3-3--3--|-----------------|-3-----------3-|-3--3--3--3--|


  Q  Q  Q  E. S   Q  E. S Q  Q    Q  Q  Q  Q    Q  E. S E. S E. S
|---------------|---------------|-------------|-------------------|
|---------------|---------------|-------------|-------------------|
|-3--0-----0--3-|-3--0--0-3--5--|-------------|----2---------2--3-|
|-------3-------|---------------|-3--3--3--2--|-3-----3-3--3------|


  E. S Q  Q  E. S   E. S Q  Q  E. S   Q  Q  Q  Q    Q  Q  Q  E. S
|-----------------|-----------------|-------------|-0--0--0-------|
|-----------------|-----------------|-------0--2--|----------0----|
|-3--5-5--5-----5-|-5--5------------|----2--------|-------------3-|
|------------7----|------7--5--7--5-|-3-----------|---------------|


  Q  Q  Q  E. S   Q  Q  Q  E. S   Q  Q  Q  Q    Q  E. S Q  Q
|---------------|---------------|-------------|---------------|
|---------------|-------0--2--3-|-5--5--5--5--|---------------|
|---------------|----2----------|-------------|----0--0-1--2--|
|-3--3--3--3--3-|-3-------------|-------------|-3-------------|


  Q  Q  E. S E. S   Q  E. S Q  Q    Q  Q  Q  E. S   Q  Q  Q  E. S
|-----------------|---------------|---------------|---------------|
|-----------------|---------------|---------------|---------------|
|-3--3--3--0----0-|-3--0--0----0--|---------------|----------0--2-|
|------------3----|---------3-----|-3--3--3--2--3-|-3--3--3-------|


  Q  E. S Q  E. S   Q  E. S Q  Q    Q  Q  Q  Q    Q  Q  Q  Q
|-----------------|---------------|-------------|-------------|
|-0-------0-------|---------0--2--|-------0--2--|-3--5--5--5--|
|----2--2----2--2-|-0--2--2-------|----2--------|-------------|
|-----------------|---------------|-3-----------|-------------|


  Q  Q  Q  E. S   Q  Q  Q  E. S   Q  E. S Q  Q    Q  Q  E E +Q
|---------------|---------------|---------------|----------------|
|-5--5--5--5----|---------------|---------------|----------------|
|-------------7-|---------------|---------------|---------2-(2)--|
|---------------|-8--8--8--8--5-|-3--3--3-2--3--|-3--3--3--------|


  Q  Q  Q  E. S   Q  Q  Q  E. S   Q  Q  Q  E. S   Q  Q  Q  E. S
|---------------|---------------|---------------|---------------|
|---------------|---------------|-------0-------|---------------|
|-3--3--3--0----|-3--3--3--5--3-|----2-----3--2-|---------------|
|-------------3-|---------------|-3-------------|-3--3--3--2--3-|


  Q  Q  Q  E. S   Q  Q  E E +Q     Q  Q  Q  Q    Q  Q  Q  Q
|---------------|----------------|-------------|-0-----------|
|---------------|----------------|-------0--2--|----2--0-----|
|-5--5--5--5----|-5--5--5-7-(7)--|----2--------|----------2--|
|-------------7-|----------------|-3-----------|-------------|


  E E Q  H      E E Q  H      E E Q  E E Q    E S S Q  Q  Q
|-------------|-------------|---------------|-----------------|
|-------------|-------------|---------------|-----------------|
|-------------|-------------|---------------|----------0--2---|
|-3-----------|-3-----------|-3------3-3----|-----3-3---------|


  Q  E. S Q  Q    Q  Q  Q  E. S   Q  Q  Q  Q    Q  Q  Q  E. S
|---------------|---------------|-------------|---------------|
|---------------|---------------|-------0-----|---------------|
|-3--0--3-3--3--|-3--3--5--3--2-|----2-----2--|----------0--2-|
|---------------|---------------|-3-----------|-3--3--3-------|


  Q  Q  Q  E. S   Q  Q  E. S Q    Q  Q  Q  Q    Q  E. S Q  Q
|---------------|---------------|-0-----------|---------------|
|-0-----0-------|-0----------0--|----2--0-----|---------0--2--|
|----2-----2--2-|----2--0--2----|----------2--|----0--2-------|
|---------------|---------------|-------------|-3-------------|


  Q  Q  Q  Q    Q  E. S Q  Q    Q  Q  E. S Q    Q  Q  Q  E. S
|-------------|---------------|---------------|---------------|
|-------0--2--|---------------|---------------|---------------|
|----2--------|-3--2--0-3--2--|---------------|-------------0-|
|-3-----------|---------------|-3--3--2--0-3--|-3--3--3--3----|


  Q  Q  Q  E. S   Q  Q  E. S E. S   Q  Q  Q  E. S   Q  E. S Q  E. S
|---------------|-----------------|---------------|-----------------|
|---------------|-----------------|---------------|-----------------|
|-3--3--3--0----|-3--3--3--5-3--0-|---------------|------------2--0-|
|-------------3-|-----------------|-3--3--3--3--2-|-3--3--3-3-------|


  Q  E. S Q  E. S   Q  E. S Q  Q    Q  Q  Q  E. S   E. S Q  Q  Q
|-----------------|---------------|-0-----0--0--0-|-0--0----------|
|-0-------0-------|-0-------0--2--|----2----------|------2--0-----|
|----2--2----2--2-|----2--2-------|---------------|------------2--|
|-----------------|---------------|---------------|---------------|


  Q  Q  Q  Q    Q  Q  Q  Q    Q  E. S Q  Q    Q  Q  Q  E. S
|-------------|-0-----------|---------------|---------------|
|-------0--2--|----2--0-----|---------------|-5-------------|
|----2--------|----------2--|----0--0-5--7--|----7--5-------|
|-3-----------|-------------|-3-------------|----------7--5-|


  E. S Q  Q  Q    E. S Q  Q  E. S   Q  Q  Q  E. S   Q  Q  Q  E. S
|---------------|-----------------|---------------|---------------|
|---------------|-----------------|-------0-------|---------------|
|---------------|-----------------|----2-----3--2-|----------2--3-|
|-7--8-8--8--8--|-7--8-8--8--8--5-|-3-------------|-3--3--3-------|


  Q  Q  Q  E. S   E. S Q  Q  Q    Q  Q  E. S Q    Q  E. S Q  E. S
|---------------|---------------|---------------|-----------------|
|---------------|---------------|---------------|---------------0-|
|-5--5--5-----5-|-5--5----5-----|---------------|------------2----|
|----------7----|------7-----7--|-3--3--2--0-3--|-3--3--3-3-------|


  Q  Q  E. S E. S   Q  Q  Q  E. S   Q  E. S Q  Q    E. S Q  Q  E. S
|-0--0------------|---------------|---------------|-----------------|
|-------2--0------|---------------|---------------|-----------------|
|------------2--0-|---------------|-0--3--2-0--0--|-3--2-------0----|
|-----------------|-3--3--3--3--3-|---------------|------3--3-----3-|


  W          W          Q  E. S E. S E. S   S E S Q  Q  E. S
|----------|----------|-------------------|-------------------|
|----------|----------|-------------------|-------------------|
|----------|----------|-------------------|-------------0--2--|
|----------|----------|-3--3--3-2--3-3--3-|-3-2-0-3--3--------|


  Q  Q  Q  E. S   Q  Q  Q  Q    Q  Q  Q  Q    Q  Q  Q  Q
|---------------|-------------|-------------|-0-----------|
|-0-----0-------|-0--0--------|-------0--2--|----2--------|
|----2-----2--0-|-------2--0--|----2--------|-------3--2--|
|---------------|-------------|-3-----------|-------------|


  Q  Q  Q  E. S   Q  Q  Q  E. S   Q  Q  Q  E. S   Q  Q  Q  E. S
|---------------|---------------|---------------|---------------|
|---------------|---------------|---------------|---------------|
|----------3--2-|----------3--2-|----------3--2-|----------0--2-|
|-3--3--3-------|-3--3--3-------|-3--3--3-------|-3--3--3-------|


  Q  Q  Q  Q    Q  Q  Q  Q    Q  E. S Q  Q    Q  Q  Q  Q
|-------------|-------------|---------------|-------------|
|-------------|-------------|---------------|-------------|
|-3--------0--|-3--0-----0--|----3--2----0--|----0-----0--|
|----0--3-----|-------3-----|-3-------3-----|-3-----3-----|


  E. S E. S Q  E. S   Q  Q  Q  Q    E. S +Q   Q  Q    E. S E. S +H
|-------------------|-------------|-----------------|------------------|
|-------------------|-------------|----5-(5)--5-----|------------------|
|-3--5-5--5-5--5--5-|-5--5--5--5--|-5------------7--|-5----------------|
|-------------------|-------------|-----------------|----7-5--3-(3)----|


  +H     +Q..   S
|--------------------*|
|--------------------*|
|--------------------*|
|-(3)----(3)---------*|




--------------------------------------------------------------------------------


Duration Legend
---------------
W - whole; H - half; Q - quarter; E - 8th; S - 16th; T - 32nd; X - 64th; a - acciaccatura
+ - note tied to previous; . - note dotted; .. - note double dotted
Uncapitalized letters represent notes that are staccato (1/2 duration)
Irregular groupings are notated above the duration line
Duration letters will always appear directly above the note/fret number it represents the
duration for.  Duration letters with no fret number below them represent rests.  Multi-
bar rests are notated in the form Wxn, where n is the number of bars to rest for.  Low
melody durations appear below the staff

Tablature Legend
----------------
 h   - hammer-on
 p   - pull-off
 b   - bend
 pb  - pre-bend
 r   - bend release (if no number after the r, then release immediately)
 /\  - slide into or out of (from/to "nowhere")
 s   - legato slide
 S   - shift slide
 - natural harmonic
[n]  - artificial harmonic
n(n) - tapped harmonic
 ~   - vibrato
 tr  - trill
 T   - tap
 TP  - trem. picking
 PM  - palm muting
\n/  - tremolo bar dip; n = amount to dip
 \n  - tremolo bar down
 n/  - tremolo bar up
/n\  - tremolo bar inverted dip
 =   - hold bend; also acts as connecting device for hammers/pulls
 <> - volume swell (louder/softer)
 x   - on rhythm slash represents muted slash
 o   - on rhythm slash represents single note slash

Misc Legend
-----------
 |  - bar
||  - double bar
||o - repeat start
o|| - repeat end
*|  - double bar (ending)
 :  - bar (freetime)
 $  - Segno
 &  - Coda
Tempo markers -  = BPM(8/16=s8/s16), where s8 = swing 8ths, s16 = swing 16ths



--------------------------------------------------------------------------------

** Generated using Power Tab Editor by Brad Larsen: The Official Power Tab Web Site
Suggest correction
What's this?
You can suggest a correction to this tab. Community and Mods will review your correction and vote to approve or reject it.
comments
We did not receive enough feedback on this tab! Please rate:
print report bad tab
1 2 3 4 5
guest
You may want to rate the tab now too:
select rating
Please do not post tabs as comments. Select "correction" instead!