Oops, an error
Loading. Please wait.

I Cant Let Go Bass Tab

200 views 1 this week
no commentswrite comment
1 2 3 4 5
please rate
add to favorites
launch autoscroll
font size
0
reset
guitar tuner
Autoscroll
slow
fast
+/-
esc
set tempo
stop
Help us to improve Ultimate-Guitar.com Take our survey!
×
  I Can't Let Go-Linda Ronstadt 
-------------------------------------------------------------------------------
Tabbed by: Mike Kunz
E-mail: rmjk21@embarqmail.com

Tuning: Standard

  Intro

G|------------------------------------|
D|------------------------------------|
A|------------------------------------|
E|-8888888888888888888888888888888888-|

  Verse

G|---------------------------------------------------------------------------|
D|---------------------------------------------------------------------------|
A|--------10-1010-10-8-88-8-10-1010-10-10-1010-10-8-88-8-10-1010-10-1010-10--|
E|-8-88-8--------------------------------------------------------------------|

  Chorus

G|----------------------------------------------------------------|
D|-------------------------------4--------------------------------|
A|8-88-8-88-8-6-66-6-66-6-5-55-7---10-10-10-----------------------|
E|------------------------------------------8-88-8-88-8-88-8-88-8-|

  Interlude

G|---------------------------------------------------------------------------|
D|---------------------------------------------------------------------------|
A|---------------------------------------------------------------------------|
E|-8888888888888888888888888888888888888888888888888888888888888888888888888-|


G|------------------------------------------------------------------|
D|------------------------------------------------------------------|
A|-8888888888888888101010101010101010101010101010108888888888888888-|
E|------------------------------------------------------------------|
  guitar solo


G|--------------------------|
D|------------------12------|
A|10101010101010h12---1010--|
E|--------------------------|
 
         
  Outro

G|--------------------------------------------------------------------|
D|--------------------------------------------------------------------|
A|-------------11-10-10---------------11-10-10---------------11-10-10-|
E|-8-88-8-88-8------------8-88-8-88-8------------8-88-8-88-8----------|



|   intro 
|   verse 
|   chorus 
|   verse
|   chorus
|   interlude
|   chorus
    chorus
    outro
Suggest correction
Give kudos to tab author, rate the tab!
1 2 3 4 5
comments
print report bad tab
guest
You may want to rate the tab now too:
select rating
Please do not post tabs as comments. Select "correction" instead!