Oops, an error
Loading. Please wait.

Its So Easy Chords

version 1
version 1

Whole song

34,760 views 84 this week
2 commentsread comments
1 2 3 4 5
x 4
add to favorites
launch autoscroll
font size
0
reset
transpose
0
reset
display chords
guitar tuner
Autoscroll
slow
fast
+/-
esc
set tempo
stop
Help us to improve Ultimate-Guitar.com Take our survey!
×
Author
It's So Easy
                         Linda Ronstadt

Tab by;omanyen@fusemail.com


[Intro]
e|--------------------------------------------|
B|--------------------------------------------|
G|--------------------------------------------|
D|---------2--4/6--6\4--4--6\4--2------2--4---|
A|--2--4----------------------------4---------|
E|--------------------------------------------|


e|--------------------------------------------------|
B|--------------------------------------------------|
G|--------------------------------------------------|
D|-------2--4/6--4--2-----2--4/6\4--2---------------|
A|--2h4----------------4---------------4--2---------|
E|--------------------------------------------3b--0-|

(NOTE:(G)= play just the 6th string/3rd fret and bend slightly)

[Verse]
E       B       A         B
It's so easy to fall in love
E       B       A    (G) E
It's so easy to fall in love
E       B       A          B
People tell me love's for fools
    E      B         A    (G) E
But here I go making eyes at you
 
[Chorus] 
              A
'cause its so easy,

(background vocals)
(it's so easy, it's so easy, its so easy)

           E
so doggone easy
             A
it seems so easy
      F#                   B
where you're concerned, my heart has learned

               E       B       A       B
oh, whoa, oh, it's so easy to fall in love
  E      B        A   (G) E
it's so easy to fall in love.

[Lead]
e|--------------------------------------------|
B|--------------------------------------------|
G|--------------------------------------------|
D|---------2--4/6--6\4--4--6\4--2------2--4---|
A|--2--4----------------------------4---------|
E|--------------------------------------------|


e|--------------------------------------------------|
B|--------------------------------------------------|
G|--------------------------------------------------|
D|-------2--4/6--4--2-----2--4/6\4--2---------------|
A|--2h4----------------4---------------4--2---------|
E|--------------------------------------------3b--0-|
 
[Verse 2] 
Look into your heart and see, 
that your love could be set apart from me.


************************************

| h  Hammer-on
| b  Bend
| /  Slide up
| \  Slide down 

************************************
Suggest correction
comments
print report bad tab
2 comments total.
0 reply
Dairybeat 1,734 Feb 04, 2009 10:17 AM

There are some mistakes!

0 reply
R7424W 10 Oct 27, 2010 02:14 PM

The chord progression in the verses should be

E B A B
E A B E

E B A B
E A B E

The rest is fine!

guest
You may want to rate the tab now too:
select rating
Wanna post a correction for this tab? Suggest correction