Oops, an error
Loading. Please wait.

Just One Look Bass Tab

52 views 1 this week
no commentswrite comment
1 2 3 4 5
3 more votes to show rating
add to favorites
launch autoscroll
font size
0
reset
guitar tuner
Autoscroll
slow
fast
+/-
esc
set tempo
stop
Help us to improve Ultimate-Guitar.com Take our survey!
×
Author
Difficulty
novice
About this tab version
I think this is the first one submitted for the Ronstadt version. Was this info helpful? Yes No
  Intro
G|----------------|----------------|----------------|0-------0-------|
D|----------------|3-------3-------|----------------|----------------|
A|3-------3-------|----------------|3-------3-------|----------------|
E|----------------|----------------|----------------|----------------|

  Verse
G|----------------|----------------|----------------|----------------|
D|----------------|----------------|0-----0-0-----0-|0-----0-0-------|
A|3-----3-3-----3-|3-----3-3-------|----------------|----------------|
E|----------------|----------------|----------------|----------------|

G|----------------|----------------|0-----0-0-----0-|0-----0-0-------|
D|3-----3-3-----3-|3-----3-3-------|----------------|----------------|
A|----------------|----------------|----------------|----------------|
E|----------------|----------------|----------------|----------------|

G|----------------|----------------|----------------|----------------|
D|----------------|----------------|0-----0-0-----0-|0-----0-0-------|
A|3-----3-3-----3-|3-----3-3-------|----------------|----------------|
E|----------------|----------------|----------------|----------------|

G|----------------|----------------|0-----0-0-----0-|0-----0-0-------|
D|3-----3-3-----3-|3-----3-3-------|----------------|----------------|
A|----------------|----------------|----------------|----------------|
E|----------------|----------------|----------------|----------------|

G|----------------|----------------|----------------|----------------|
D|----------------|----------------|0-----0-0-----0-|0-----0-0-------|
A|3-----3-3-----3-|3-----3-3-------|----------------|----------------|
E|----------------|----------------|----------------|----------------|

G|----------------|----------------|0-----0-0-----0-|0-----0-0-------|
D|3-----3-3-----3-|3-----3-3-------|----------------|----------------|
A|----------------|----------------|----------------|----------------|
E|----------------|----------------|----------------|----------------|

G|----------------|----------------|----------------|----------------|
D|----------------|----------------|0-----0-0-----0-|0-----0-0-------|
A|3-----3-3-----3-|3-----3-3-------|----------------|----------------|
E|----------------|----------------|----------------|----------------|

G|----------------|0---------------|----------------|----------------|
D|3-----3-3-----3-|----------------|----------------|----------------|
A|----------------|----------------|3-----3-3-----3-|3-----3-3---3---|
E|----------------|----------------|----------------|----------------|

  Bridge
G|----------------|----------------|----------------|----------------|
D|3-----3-3-----3-|3-----3-3-------|----------------|----------------|
A|----------------|----------------|3-----3-3-----3-|3-----3-3-----3-|
E|----------------|----------------|----------------|----------------|

G|----------------|----------------|0-----0-0-----0-|0-----0-0---0---|
D|0-----0-0-----0-|0-----0-0-------|----------------|----------------|
A|----------------|----------------|----------------|----------------|
E|----------------|----------------|----------------|----------------|

  Verse
G|----------------|----------------|----------------|----------------|
D|----------------|----------------|0-----0-0-----0-|0-----0-0-------|
A|3-----3-3-----3-|3-----3-3-------|----------------|----------------|
E|----------------|----------------|----------------|----------------|

G|----------------|----------------|0-----0-0-----0-|0-----0-0-------|
D|3-----3-3-----3-|3-----3-3-------|----------------|----------------|
A|----------------|----------------|----------------|----------------|
E|----------------|----------------|----------------|----------------|

G|----------------|----------------|----------------|----------------|
D|----------------|----------------|0-----0-0-----0-|0-----0-0-------|
A|3-----3-3-----3-|3-----3-3-------|----------------|----------------|
E|----------------|----------------|----------------|----------------|

G|----------------|----------------|0-----0-0-----0-|0-----0-0-------|
D|3-----3-3-----3-|3-----3-3-------|----------------|----------------|
A|----------------|----------------|----------------|----------------|
E|----------------|----------------|----------------|----------------|

  Just one look    that's all       Just one look    that's all
G|----------------|----------------|----------------|----------------|
D|----------------|------------0---|----------------|------------0---|
A|----------------|1-----1-1-----3-|----------------|1-----1-1-----3-|
E|1-----1-1-----1-|----------------|1-----1-1-----1-|----------------|

G|----------------|----------------|----------------|----------------|
D|----------------|------------0---|----------------|------------0---|
A|----------------|1-----1-1-----3-|----------------|1-----1-1-----3-|
E|1-----1-1-----1-|----------------|1-----1-1-----1-|----------------|

G|----------------|----------------|----------------|----------------|
D|----------------|------------0---|----------------|------------0---|
A|----------------|1-----1-1-----3-|----------------|1-----1-1-----3-|
E|1-----1-1-----1-|----------------|1-----1-1-----1-|----------------|

G|----------------|----------------|----------------|----------------|
D|----------------|------------0---|----------------|------------0---|
A|----------------|1-----1-1-----3-|----------------|1-----1-1-----3-|
E|1-----1-1-----1-|----------------|1-----1-1-----1-|----------------|

G|----------------|----------------|----------------|----------------|
D|----------------|------------0---|----------------|------------0---|
A|----------------|1-----1-1-----3-|----------------|1-----1-1-----3-|
E|1-----1-1-----1-|----------------|1-----1-1-----1-|----------------|

G|----------------|----------------|----------------|----------------|
D|----------------|----------------|----------------|----------------|
A|----------------|1---------------|----------------|----------------|
E|1-----1-1-----1-|----------------|1---------------|----------------|

Comments on the last 3 bars welcomed. 
Suggest correction
Give kudos to tab author, rate the tab!
1 2 3 4 5
comments
print report bad tab
guest
You may want to rate the tab now too:
select rating
Wanna post a correction for this tab? Suggest correction