Oops, an error
Loading. Please wait.

Poor Poor Pitiful Me Bass Tab

46 views 1 this week
2 commentsread comments
1 2 3 4 5
2 more votes to show rating
add to favorites
launch autoscroll
font size
0
reset
guitar tuner
Autoscroll
slow
fast
+/-
esc
set tempo
stop
Help us to improve Ultimate-Guitar.com Take our survey!
×
Author
Difficulty
novice
About this tab version
I think this is the first one submitted for the Ronstadt version. Was this info helpful? Yes No
  Intro
                                                                 Well
G|----------------|----------------|----------------|----------------|
D|----------------|----------------|----------------|----------------|
A|4-----4-4-------|4-----4-4-------|1-------4---4---|4-----4-4-------|
E|----------------|----------------|----4-----------|----------------|

  Verse
  lay   head   on  rail  track 
G|----------------|----------------|----------------|----------------|
D|----------------|----------------|----------------|----------------|
A|4-----4-4-------|4-----4-4-------|4-----4-4-------|4-----4-4-------|
E|----------------|----------------|----------------|----------------|

G|----------------|----------------|----------------|----------------|
D|----------------|----------------|----------------|----------------|
A|4-----4-4-------|4-----4-4-------|4-----4-4-------|4-----4-4-------|
E|----------------|----------------|----------------|----------------|

  Chorus
G|----------------|----------------|----------------|----------------|
D|----------------|----------------|----------------|----------------|
A|--------4-------|--------4-----4-|--------4-------|4-----4-4-------|
E|2-----2---------|4-----4---------|2-----2---------|----------------|

G|----------------|----------------|----------------|----------------|
D|----------------|----------------|----------------|----------------|
A|--------4-----4-|--------4-----4-|----------------|----------------|
E|2-----2---------|4-----4---------|2-----2-2-------|4-----4-4-------|

G|----------------|
D|----------------|
A|----------------|
E|4-----4-4-------|

  Solo
G|----------------|----------------|----------------|----------------|
D|----------------|----------------|----------------|----------------|
A|4-----4-4-----4-|4-----4-4-----4-|4-----4-4-----4-|4-----4-4-----4-|
E|----------------|----------------|----------------|----------------|

  Verse
G|----------------|----------------|----------------|----------------|
D|----------------|----------------|----------------|----------------|
A|4-----4-4-------|4-----4-4-------|4-----4-4-------|4-----4-4-------|
E|----------------|----------------|----------------|----------------|

G|----------------|----------------|----------------|----------------|
D|----------------|----------------|----------------|----------------|
A|4-----4-4-------|4-----4-4-------|4-----4-4-------|4-----4-4-------|
E|----------------|----------------|----------------|----------------|

G|----------------|----------------|----------------|----------------|
D|----------------|----------------|----------------|----------------|
A|--------4-------|4-----4-4-------|4-----4-4-------|4-----4-4-------|
E|2-----2---------|----------------|----------------|----------------|

G|----------------|----------------|----------------|----------------|
D|----------------|----------------|----------------|----------------|
A|--------4-------|4-----4-4-------|4-----4-4-------|4-----4-4-------|
E|2-----2---------|----------------|----------------|----------------|

  Chorus
G|----------------|----------------|----------------|----------------|
D|----------------|----------------|----------------|----------------|
A|--------4-------|--------4-----4-|--------4-------|4-----4-4-------|
E|2-----2---------|4-----4---------|2-----2---------|----------------|

G|----------------|----------------|----------------|----------------|
D|----------------|----------------|----------------|----------------|
A|--------4-----4-|--------4-----4-|----------------|----------------|
E|2-----2---------|4-----4---------|2-----2-2-------|4-----4-4-------|

G|----------------|
D|----------------|
A|----------------|
E|4-----4-4-------|

  Solo
G|----------------|----------------|----------------|----------------|
D|----------------|----------------|----------------|----------------|
A|--------4-----4-|4-----4-4-----4-|--------4-----4-|4-----4-4-------|
E|2-----2---------|----------------|2-----2---------|----------------|

G|----------------|----------------|----------------|----------------|
D|----------------|----------------|----------------|----------------|
A|4-----4-4-------|4-----4-4-----4-|1-------4---4---|4-----4-4-------|
E|----------------|----------------|----4-----------|----------------|

 Verse
G|----------------|----------------|----------------|----------------|
D|----------------|----------------|----------------|----------------|
A|4-----4-4-------|4-----4-4-------|4-----4-4-------|4-----4-4-------|
E|----------------|----------------|----------------|----------------|

G|----------------|----------------|----------------|----------------|
D|----------------|----------------|----------------|----------------|
A|4-----4-4-------|4-----4-4-------|4-----4-4-------|4-----4-4-------|
E|----------------|----------------|----------------|----------------|

  Chorus
G|----------------|----------------|----------------|----------------|
D|----------------|----------------|----------------|----------------|
A|--------4-------|--------4-----4-|--------4-------|4-----4-4-------|
E|2-----2---------|4-----4---------|2-----2---------|----------------|

G|----------------|----------------|----------------|----------------|
D|----------------|----------------|----------------|----------------|
A|--------4-----4-|--------4-----4-|----------------|----------------|
E|2-----2---------|4-----4---------|2-----2-2-------|4-----4-4-------|

G|----------------|
D|----------------|
A|----------------|
E|4-----4-4-------|

  Outro  
G|----------------|----------------|----------------|----------------|
D|----------------|----------------|----------------|----------------|
A|--------4-------|4-----4-4-----4-|--------4---4---|4-----4-4-------|
E|2-----2---------|----------------|2-----2---------|----------------|

G|----------------|----------------|----------------|----------------|
D|----------------|----------------|----------------|----------------|
A|4-----4-4-------|4-----4-4-------|1-----------4---|4-----4-4-------|
E|----------------|----------------|----4---4-------|----------------|

G|----------------|----------------|----------------|----------------|
D|----------------|----------------|----------------|----------------|
A|--------4-----4-|--------4-----4-|--------4-----4-|--------4-----4-|
E|2-----2---------|4-----4---------|2-----2---------|4-----4---------|

  Keep repeating the above 4 bars 

  Last 3 bars of live version
G|----------------|----------------|----------------|----------------|
D|----------------|----------------|----------------|----------------|
A|--------4-------|4-----4-4-----4-|4---------------|----------------|
E|2-----2---------|----------------|----------------|----------------|

Suggest correction
Give kudos to tab author, rate the tab!
1 2 3 4 5
comments
print report bad tab
2 comments total.
0 reply
JBucki10 12 Nov 15, 2016 02:29 PM

Replace the B's with F#'s in this song and you are basically on the money champ!

0 reply
RagnaarMN 2,677 Nov 15, 2016 11:14 PM

Thank you for your corrections. I approved your corrections.

guest
You may want to rate the tab now too:
select rating
Wanna post a correction for this tab? Suggest correction