Oops, an error
Loading. Please wait.

When Will I Be Loved Bass Tab

70 views 6 this week
no commentswrite comment
1 2 3 4 5
3 more votes to show rating
add to favorites
launch autoscroll
font size
0
reset
guitar tuner
Autoscroll
slow
fast
+/-
esc
set tempo
stop
Help us to improve Ultimate-Guitar.com Take our survey!
×
Author
Difficulty
novice
G|----------------|
D|----------------|
A|--------------2-|
E|----------------|

  Verse
      I've         cheat                been         treat 
G|----------------|----------------|----------------|----------------|
D|----------------|----------------|----------------|----------------|
A|3---------------|--------------2-|3---------------|--------------2-|
E|----------------|----------------|----------------|----------------|
  Hold these C notes

G|----------------|----------------|----------------|----------------|
D|----------------|----------------|----------------|----------------|
A|3---------------|----------------|----------------|1---1---3---3---|
E|----------------|----------------|----------------|----------------|
 
      I've    been
G|----------------|----------------|----------------|----------------|
D|----------------|----------------|----------------|----------------|
A|------------0---|1---1---3---1---|------------0---|1---1---3---1---|
E|1---1---1-------|----------------|1---1---1-------|----------------|

G|----------------|----------------|----------------|----------------|
D|----------------|----------------|3---3---3---0---|3---1---0-------|
A|------------0---|1---1---3---3---|----------------|------------3---|
E|1---1---1-------|----------------|----------------|----------------|

  Chorus
G|----------------|----------------|----------------|----------------|
D|----------------|----------------|----------------|----------------|
A|1---1---1---1---|3---3---3---3---|1---1---1---1---|----------------|
E|----------------|----------------|----------------|1---1---1---1---|

G|----------------|----------------|----------------|----------------|
D|----------------|----------------|0---0---0---0---|2---------------|
A|1---1---1---1---|3---3---3---3---|----------------|----3---3---3---|
E|----------------|----------------|----------------|----------------|
 
                   Verse
G|----------------|----------------|----------------|----------------|
D|----------------|----------------|----------------|----------------|
A|3---3---3-------|------------0---|1---1---3---1---|------------0---|
E|------------4---|1---1---1-------|----------------|1---1---1-------|

G|----------------|----------------|----------------|----------------|
D|----------------|----------------|----------------|----------------|
A|1---1---3---1---|------------0---|1---1---3---3---|------------0---|
E|----------------|1---1---1-------|----------------|1---1---1-------|

                   Solo
G|----------------|----------------|----------------|----------------|
D|----------------|----------------|----------------|----------------|
A|1---1---3---3---|1---1---1---1---|3---3---3---3---|1---1---1---1---|
E|----------------|----------------|----------------|----------------|

G|----------------|----------------|----------------|----------------|
D|----------------|----------------|----------------|0---0---0---0---|
A|----------------|1---1---1---1---|3---3---3---3---|----------------|
E|1---1---1---1---|----------------|----------------|----------------|

G|----------------|
D|3---1---0-------|
A|------------3---|
E|----------------|

  Chorus
G|----------------|----------------|----------------|----------------|
D|----------------|----------------|----------------|----------------|
A|1---1---1---1---|3---3---3---3---|1---1---1---1---|----------------|
E|----------------|----------------|----------------|1---1---1---1---|

G|----------------|----------------|----------------|----------------|
D|----------------|----------------|0---0---0---0---|2---------------|
A|1---1---1---1---|3---3---3---3---|----------------|----3---3---3---|
E|----------------|----------------|----------------|----------------|

                   Verse
G|----------------|----------------|----------------|----------------|
D|----------------|----------------|----------------|----------------|
A|3---3---3-------|------------0---|1---1---3---1---|------------0---|
E|------------4---|1---1---1-------|----------------|1---1---1-------|

G|----------------|----------------|----------------|----------------|
D|----------------|----------------|----------------|----------------|
A|1---1---3---1---|------------0---|1---1---3---3---|------------0---|
E|----------------|1---1---1-------|----------------|1---1---1-------|

G|----------------|----------------|----------------|----------------|
D|----------------|----------------|----------------|3---3---3---0---|
A|1---1---3---3---|------------0---|1---1---3---3---|----------------|
E|----------------|1---1---1-------|----------------|----------------|

G|----------------|----------------|----------------|----------------|
D|----------------|----------------|----------------|----------------|
A|1---1---3---3---|----------------|----------------|----------------|
E|----------------|1---1-----------|----------------|----------------|
                       Hold  

This tab is a bit simplified.
Suggest correction
Give kudos to tab author, rate the tab!
1 2 3 4 5
comments
print report bad tab
guest
You may want to rate the tab now too:
select rating
Wanna post a correction for this tab? Suggest correction