Oops, an error
Loading. Please wait.

Youre No Good Tab

version 1
version 1

Solo

Whole song

Interactive

9,686 views 15 this week
1 commentread comment
1 2 3 4 5
worth learning
x 3
add to favorites
launch autoscroll
font size
0
reset
how to read this tab
guitar tuner
Tab Pro tools
  • play this tab
  • loop segment
  • change instrument
  • show fretboard
  • metronome
Autoscroll
slow
fast
+/-
esc
set tempo
stop
Difficulty
novice
-----------------------------------------------------------------
You're No Good - Linda Ronstadt
-----------------------------------------------------------------
Tabbed by: Kevin Davis
Email: joenate90@yahoo.com
Tuning: Standard (key of Bb minor)

GUITAR 1 PLAY THIS FOUR TIMES: 
E|---------------------------------------------------------------|
B|-------4-----4~~---------5--------5~~~-------------------------|
G|---------6-------------------6---------------------------------|
D|----6-----6-----------4-------4--------------------------------|
A|---------------------------------------------------------------|
E|---------------------------------------------------------------|


THE THIRD TIME GUITAR 2 DOUBLES WITH THIS 2x:
E|---------------------------------------------------------------|
B|---------------------------------------------------------------|
G|---------------------------------------------------------------|
D|--------------------------1------------------------------------|
A|--1---4----4------1--/4-----4~~~~~~~---------------------------|
E|-------3----2---2----------------------------------------------|

GUITAR 1 THEN PLAYS THIS:  
E|----------------------------13br~~~~~---11-----11--------------|
B|---------10br----13br-11--------------------14-----------------|
G|------11-----11---------13---------------------------13\10-----|
D|--/11----------------------------------------------------------|
A|---------------------------------------------------------------|
E|---------------------------------------------------------------|

E|---------------------------------------------------------------|
B|---------------------------------13~~~-------------------------|
G|--10\8/10---12\10/12--14\12/14------------14p12----------------|
D|------------------------------------------------15-------------|
A|---------------------------------------------------------------|
E|---------------------------------------------------------------|

E|------------13~~~~~~~~-----------------------------------------|
B|--13\12/13-----------------------------------------------------|
G|---------------------------------------------------------------|
D|---------------------------------------------------------------|
A|---------------------------------------------------------------|
E|---------------------------------------------------------------|


Tablature Notation

h - hammer on
p - pull off
b - bend string up
r - release bend
/ - slide up
\ - slide down
v - vibrato (or ~)
t - right hand tap
x - play 'note' with heavy muting

comments
We did not receive enough feedback on this tab! Please rate:
print report bad tab
1 2 3 4 5
1 comment total.
0 reply
dandhjohn wrote on June 27 2011, 12:29 am

1st Guitar part, should be as follows:

E|------------------------------------------------------|
B|-------4-----4~~---------5--------5~~~----------------|
G|---------6-------------------6------------------------|
D|----6-----6--5--------4-------4-----------------------|
A|------------------------------------------------------|
E|------------------------------------------------------|

2nd piece should be:

E|-------------------------------------------------------|
B|-------------------------------------------------------|
G|-------------------------------------------------------|
D|-------------------------------------------------------|
A|--1---4----4----------4--6--4~~~~~~~-------------------|
E|-------3----2---2--/6----------------------------------|

Final lead:

E|-------------------------13br~~~~~11--11--------|
B|----------------13br11--------------14----------|
G|------11-13br11-------13----------------13------|
D|--/11-------------------------------------------|
A|------------------------------------------------|
E|------------------------------------------------|

E|----------------------------------------------------------|
B|-------------------------------13-----------------18------|
G|--10p8-10---12p10-12--14p12-14----15p14---17p16-17--------|
D|---------------------------------------15-----------------|
A|----------------------------------------------------------|
E|----------------------------------------------------------|

I want to post or [tab]
guest
You may want to rate the tab now too:
select rating
Please do not post tabs as comments. Select "correction" instead!