Oops, an error
Loading. Please wait.

Youre No Good Tab

version 1
version 1

Whole song

Interactive

13,099 views 21 this week
2 commentsread comments
1 2 3 4 5
accurate
x 4
add to favorites
launch autoscroll
font size
0
reset
how to read this tab
guitar tuner
Tab Pro tools
  • play this tab
  • loop segment
  • change instrument
  • show fretboard
  • metronome
×
Best way to learn
"Youre No Good"
Autoscroll
slow
fast
+/-
esc
set tempo
stop
Contributor
Difficulty
Capo
intermediate
1st fret
-------------------------------------------------------------------------------
                             You're No Good - Linda Ronstadt
-------------------------------------------------------------------------------
Tabbed by: Ashley Martin
Email: italian_scotgirl89@hotmail.com


Tuning: Standard (Capo 1st fret)

Intro: Keyboards (arr. for guitar) - This is pretty much repeated through the verses

    1 & 2 & 3 & 4 &   1 & 2 & 3 & 4 &
e|------------------|-----------------|
B|------------------|-----------------|
G|--2---------------|-2-0-2-----------|
D|--2---------0~----|-2-0-2-0~--------| x 2
A|--0---------0~----|-------0~--------|
E|------------------|-----------------|
    A         D       A     D
Guitar 1: (Clean)- Play this riff when the intro plays the 2nd time.
   1 & 2 & 3 & 4 &   1 & 2 & 3 & 4 &
e|-0---------------|-----------------|
B|-2-----3---------|-5\3p1h3~--------|
G|-2-----2---------|-5\2p0h2~--------|
D|-2-----0---------|-----------------|
A|-0---------------|-----------------|
E|-----------------|-----------------|
   A     D           A     D

Verse 1: Guitar 1 (Clean)

   1 & 2 & 3 & 4 &   1 & 2 & 3 & 4 &   1 & 2 & 3 & 4 &   1 & 2 & 3 & 4 &
e|-----------------|-------------5---|-----5-----------|-----0-----------|
B|-------------3p1-|-------------5---|-----5-------3p1-|-----2-----3-3---|
G|-----2-------2p0-|-----2-----------|-------------2p0-|-----2-------2---|
D|-----2-----------|-----2-----------|-----------------|-----------------|
A|-----------------|-----------------|-----------------|-----------------|
E|-----------------|-----------------|-----------------|-----------------|
   A     D           A     D           A     D           A     D     ^
   1 & 2 & 3 & 4 &   1 & 2 & 3 & 4 &   1 & 2 & 3 & 4 &  1 & 2 & 3 & 4 &
e|-----8-------7---|-----------------|---------2-2-2-2-|----------------|
B|---6-------------|-----5-----------|-2-------3-3-3-3-|----------------|
G|-5---------7-----|-----5-----5-4-3-|-2-------2-2-2-2-|1-1-1-1-1-1-1-1-|
D|---------5-------|---5-------5-4-3-|-2-------0-0-0-0-|2-2-2-2-2-2-2-2-|
A|-----------------|-3---------3-2-1-|-0---------------|2-2-2-2-2-2-2-2-|
E|-----------------|-----------------|-----------------|0-0-0-0-0-0-0-0-|
   F       G         C         C B Bb  A       D        E
                               PM ---  ^       PM ----------------------

Chrous: Guitar 2 (Distorted) - I don't think there's a guitar playing during the chorus, 
here are the chords.


   1 & 2 & 3 & 4 &   1 & 2 & 3 & 4 &   1 & 2 & 3 & 4 &   1 & 2 & 3 & 4 &
e|-----------------|---------2-2-2---|-----------------|-2-2-2-2-2-2-2-2-|
B|-2-2-2-2-1-1-1-1-|---------3-3-3-2-|-2-2-2-2-2-2-2-2-|-3-3-3-3-3-3-3-3-|
G|-2-2-2-2-0-0-0-0-|-1-1-1-1-2-2-2-2-|-2-2-2-2-2-2-2-2-|-2-2-2-2-2-2-2-2-|
D|-2-2-2-2-2-2-2-2-|-2-2-2-2-0-0-0-2-|-2-2-2-2-2-2-2-2-|-0-0-0-0-0-0-0-0-|
A|-0-0-0-0-3-3-3-3-|-2-2-2-2-------0-|-0-0-0-0-0-0-0-0-|-----------------|
E|-----------------|-0-0-0-0---------|-----------------|-----------------|
  A        C         E       D     A   A                 D
  PM --------------------------------------------------------------------
   1 & 2 & 3 & 4 &   1 & 2 & 3 & 4 &   1 & 2 & 3 & 4 &   1 & 2 & 3 & 4 &
e|-----------------|---------2-2-2---|-----------------|---------------5-|
B|-2-2-2-2-1-1-1-1-|---------3-3-3-2-|-2-2-2-2-2-2-2-2-|-2-2-2-2-2-2-2-5-|
G|-2-2-2-2-0-0-0-0-|-1-1-1-1-2-2-2-2-|-2-2-2-2-2-2-2-2-|-2-2-2-2-2-2-2-5-|
D|-2-2-2-2-2-2-2-2-|-2-2-2-2-0-0-0-2-|-2-2-2-2-2-2-2-2-|-2-2-2-2-2-2-2-7-|
A|-0-0-0-0-3-3-3-3-|-2-2-2-2-------0-|-0-0-0-0-0-0-0-0-|-0-0-0-0-0-0-0-0-|
E|-----------------|-0-0-0-0---------|-----------------|---------------v-|
   A       C         E       D     A   A

Verse 2: Guitar 1 (Clean) - Same as verse 1 pretty much.


Solo: Guitar 2 (Distorted)- Ring the top strings
   1 & 2 & 3 & 4 &   1 & 2 & 3 & 4 &   1 & 2 & 3 & 4 &   1 & 2 & 3 & 4 &
e|-----------------|-----------------|-----------------|-----------------|
B|-----------------|-----------------|---3-1---3-------|---4-----4-------|
G|-----------------|-----------------|-0--0-0----------|-----5-----------|
D|-----------------|-----------------|---------4-------|-3--3-3--3-------|
A|-----------------|-----------------|-----------------|-----------------|
E|-----------------|-----------------|-----------------|-----------------|

   1 & 2 & 3 & 4 &   1 & 2 & 3 & 4 &
e|-----------------|-----------------|
B|---3-1---3-------|---4-----4-------|
G|-0--0-0----------|-----5-----------|
D|---------4-------|-3--3-3--3-------|
A|-----------------|-----------------|
E|-----------------|-----------------|

Guitar 3 (Distorted) - Guitar 2 plays in the background still
   1 & 2 & 3 & 4 &   1 & 2 & 3 & 4 &   1 & 2 & 3 & 4 &   1 & 2 & 3 & 4 &
e|-----------------|-----------------|-----------------|-----------------|
B|-----------------|-----------------|-----------------|---------------5-|
G|-----------------|-----------------|-----------------|-------------5---|
D|-----------------|---------0-------|-----------------|---------0-------|
A|-0~----3-------3-|-----0-3---3~----|-0~----3-------3-|-----0-3---3~----|
E|---------3~------|-1-1-------------|---------3~------|-1-1-------------|

   1 &      2 & 3        & 4  &   1      & 2 &  3  &  4 &
e|------------------------------|-12h13p12-- 10-8--10-----|
B|-8-8b(10)r8-6-12b(13)r12-10---|---------------------10--|
G|----------------------------12|-------------------------|
D|------------------------------|-------------------------|
A|------------------------------|-------------------------|
E|------------------------------|-------------------------|

   1 &     2 & 3 &      4 &   1 &      2   &   3 & 4     &
e|--------------------------|------------------------------|
B|--------------------------|------------------12----------|
G|---7b(9)r7/9---9b(11)r9/11|---11b(13)r11/13------14p13---|
D|--------------------------|----------------------------14|
A|--------------------------|------------------------------|
E|--------------------------|------------------------------|

   1 &        2  &    3 & 4 &
e|--------------------12~~----|
B|----------------------------|
G|---11b (13)r11/13-----------|
D|----------------------------|
A|----------------------------|
E|----------------------------|

Bridge and Chorus: Guitar 1 (Clean) - Repeat this until 2:19

   1 & 2 & 3 & 4 &   1 & 2 & 3 & 4 &
e|-----------------|-----------------|
B|-----3-------3---|-----3-------3---|
G|---0---0---0---0-|---0---0---0---0-|
D|-2-------4-------|-2-------4-------|
A|-----------------|-----------------|
E|-----------------|-----------------|
I'm telling you now baby now, that I'm goin my way ...


Outro: Guitar 1 (Clean)- Repeat until the end

   1 & 2 & 3 & 4 &   1 & 2 & 3 & 4     &   1 & 2 & 3 & 4 &
e|-----------------|---------------------|-----------------|
B|---------------1-|-(1)---------3b(5)r3-|-(3)~------------|
G|-2---------0h2-0-|-(0)-------2-2b(4)r2-|-(2)~------------|
D|-2---------0h2---|-----------2---------|-----------------|
A|-----------------|---------------------|-----------------|
E|-----------------|---------------------|-----------------|
   ^
   1 & 2 &    3 & 4 &
e|--------------------|
B|-3b----(3b)-3-1-----|
G|-2b----(2b)-2-0-2-0-|
D|----------------2-0-|
A|--------------------|
E|--------------------|

And that's it! I listened real carefully to make sure it was right, and it sounds like 
is, so if I made any mistakes or left something out, just let me know. Meanwhile, ENJOY!

| /  slide up
| \  slide down
| h  hammer-on
| p  pull-off
| ~  vibrato
| +  harmonic
| x  Mute note
| PM palm mute
| ^  strum up
| v  strum down
|()  let ring
| b  bend
| r  release
===============
comments
print report bad tab
2 comments total.
0 reply
dandhjohn wrote on June 27 2011, 12:09 am

Adding the Capo confuses everything. The break first guitar is wrong, the 2nd guitar part part has a G# that should be a G on the Lower E string, multiple errors throughout the song.

0 reply
danzig138 wrote on April 17 2016, 02:05 pm

So post a better version then, bubba.

I want to post or [tab]
guest
You may want to rate the tab now too:
select rating
Please do not post tabs as comments. Select "correction" instead!