Oops, an error
Loading. Please wait.

Crowns Down chords

10 views 1 this week
no commentswrite comment
1 2 3 4 5
3 more votes to show rating
add to favorites
×
Save as Personal and add changes to this tab that will be seen only by you. Learn more ›
×
You can save this tab as Personal to edit and correct it or add notes. All changes will be seen only by you. Learn more »
launch autoscroll
font size
0
reset
transpose
0
reset
display chords
guitar tuner
edit
Autoscroll
slow
fast
+/-
esc
set tempo
stop
Strumming
There is no strumming pattern for this song yet. and get +5 IQ
-------------------------------------------------------------------------
                               Artist - Lindell Cooley
                              *************************
                                 Song - Crowns Down
                                ********************
                          Album - Desperate For You (2000)
                         **********************************
                                Tabbed By - Ayreon77
                               **********************
-------------------------------------------------------------------------
Tuning = Standard



INTRO - Em G D X6
******
e|-----|--------------------------------------|-------------------------------------------|
B|-----|--s--------s--------s-----------------|--s--------s--------s----------------------|
G|-----|-7\9-9-7--7\9-9----7\9-9-7~~~---------|-7\9-9-7--7\9-9----7\9-9-7~~~-brp----------|
D|-----|----------------9-------------0-7-5~~-|------------------------------7--5---7-5~~-|
A|-0---|------------------------------0-7-5~~-|-----------------------------------7-7-5~~-|
E|---3-|--------------------------------------|-------------------------------------------|


e|------------------------------|----------------------------------|
B|--s--------s--------s---------|--s--------s--------s-------------|
G|-7\9-9-7--7\9-9----7\9-9-7~~~-|-7\9-9-7--7\9-9----7\9-9-7~~~-----|
D|----------------9-------------|----------------9-----------------|
A|------------------------------|------------------------------0---|
E|------------------------------|--------------------------------3-|


e|------------------------------|-----------------------------------|
B|--s--------s--------s---------|--s--------s--------s--------------|
G|-7\9-9-7--7\9-9----7\9-9-7~~~-|-7\9-9-7--7\9-9----7\9-9-7~~~------|
D|----------------9-------------|----------------9------------------|
A|------------------------------|-------------------------------0---|
E|------------------------------|---------------------------------3-|


------------------------
PICKING PATTERN WITH VERSE 1
  Em         G         D
e|----------|---------|-2~~------|---------|---------|-2~~-|
B|----------|-----3---|-3~~------|---------|-----3---|-3~~-|
G|------0---|-------0-|-2~~------|-----0---|-------0-|-2~~-|
D|----2---2-|---0-----|-0~~------|---2---2-|---0-----|-0~~-|
A|----------|---------|------0---|---------|---------|-----|
E|-0--------|-3-------|--------3-|-0-------|-3-------|-----|

00:42
VERSE 1
********
Em      G      D
Lord of glory, Lord of love
Em     G      D
   We lay are crowns down
Em            G      D
No flesh were glory, in your sights
Em    G       D
   We lay are crowns down
Em    G           D
Every goverments, every land
Em      G         D
   Will lay there crowns down
Em       G           D
There is none who is   higher than you Lord
Em    G       D
   We lay are crowns down


------------------------
01:36
CHORUS
*******
Bm     G       D       A
 We'll seek no earthly title
Bm       G        D      A
 Let are names in him be found
Bm        G        D     A
 Turn are backs on every idol
Bm  A       G
 We lay are crowns down


------------------------
02:02
BREAK - Em G D X2
******
e|------------------------------------|-----------------------------------|
B|--s--------s--------s---------------|--s--------s--------s--------------|
G|-7\9-9-7--7\9-9----7\9-9-7~~~-------|-7\9-9-7--7\9-9----7\9-9-7~~~------|
D|----------------9-------------0-7-5-|----------------9------------------|
A|------------------------------0-7-5-|-------------------------------0---|
E|------------------------------------|---------------------------------3-|


------------------------
02:16
VERSE 2 - Same picking as above
********
Em            G     D
  The perfect lamb,   perfect son
Em    G       D
   We lay are lives down
Em        G           D
Jesus you came to us,   the blameless one
Em    G       D
   We lay are lives down
             Em   G      D
And you were sacrificed, to set us free
Em    G       D
   We lay are lives down
             Em      G               D
And you were brused, you were broken for are iniquitys
Em    G       D
   We lay are lives down


------------------------
03:08
CHORUS
*******
Bm     G       D       A
 We'll seek no earthly title
Bm       G        D      A
 Let are names in him be found
Bm        G        D     A
 Turn are backs on every idol
Bm  A      G
We lay are lives down


Bm     G       D       A
 We'll seek no earthly title
Bm       G        D      A
 Let are names in him be found
Bm        G        D     A
 Turn are backs on every idol
Bm  A      G
We lay are lives down, we lay are lives down
Bm  A      G
we lay are lives down


------------------------
04:07
BREAK - Em G D X4 continue on this with the solo below
******
e|--------------------------------------|-------------------------------------------|
B|--s--------s--------s-----------------|--s--------s--------s----------------------|
G|-7\9-9-7--7\9-9----7\9-9-7~~~---------|-7\9-9-7--7\9-9----7\9-9-7~~~-brp----------|
D|----------------9-------------0-7-5~~-|------------------------------7--5---7-5~~-|
A|------------------------------0-7-5~~-|-----------------------------------7-7-5~~-|
E|--------------------------------------|-------------------------------------------|


e|--------------------------------------|-------------------------------------------|
B|--s--------s--------s-----------------|--s--------s--------s----------------------|
G|-7\9-9-7--7\9-9----7\9-9-7~~~---------|-7\9-9-7--7\9-9----7\9-9-7~~~-brp----------|
D|----------------9---------------7-5~~-|------------------------------7--5---7-5~~-|
A|------------------------------7-------|-----------------------------------7-7-5~~-|
E|--------------------------------------|-------------------------------------------|



ENJOY.............

            
            
Suggest correction
Creating personal tab
Creating personal tab
You can edit any tab online and save it as your Personal.

You can edit, replace or remove any tab part or add personal notes – all changes will be seen only by you.

Personal tabs can be accessed anytime from any device, even offline.
Learn more »
Give kudos to tab author, rate the tab!
1 2 3 4 5
comments
print report bad tab
guest
You may want to rate the tab now too:
select rating
Wanna post a correction for this tab? Suggest correction